Oops, an error
Loading. Please wait.

Forever Reign Tab

31 views 1 this week
no commentswrite comment
1 2 3 4 5
2 more votes to show rating
add to favorites
launch autoscroll
font size
0
reset
how to read this tab
guitar tuner
Autoscroll
slow
fast
+/-
esc
set tempo
stop
Help us to improve Ultimate-Guitar.com Take our survey!
×
Author
Difficulty
Capo
intermediate
5th fret
About this tab version
Combined Electric Guitar(s) 1 and 2 in some parts based on our Worship Team resources. Many times I am the only electric guitarist so I feel obligated to combine some of both guitar parts. The idea is to play the parts that standout and recognizable for the congregation. Included Memphis Numbering for those who use them. Please note - I use a capo on the 5th fret and the chords are related to the capo. The notes however related to the capo but the notes as if there was no capo. This may seem awkward but it’s just the way my brain works. Was this info helpful? Yes No
Key: C   BPM: 82.8  Capo: 5                                                  Tone: Clean/Bright
Ele Guitar 1/2: Lead/Rhythm                                                  Effects: Heavy - Delay/Reverb
Notes not relevant to capo                                                   Chords are relevant to Capo

Intro/Interlude:
        1
        G
e|------------------|---------------------|------------------|---------------------|
B|------------------|------------------8--|------------------|------------------8--|
G|-----7-h-9-----5--|-----7-h-9-----5-----|-----7-h-9-----5--|-----7-h-9-----5-----|
D|--5---------9-----|--5---------9--------|--5---------9-----|--5---------9--------|
A|------------------|---------------------|------------------|---------------------|
E|------------------|---------------------|------------------|---------------------|

Verse 1:         1
                 G
    You are good, You are good When there's nothing good in me
    You are light, You are light When the darkness closes in
e|------------------------------------------------------------|
B|----------8-------------------------------------------------|
G|------------------------------------------------------------|
D|----------10------------------------------------------------|
A|------------------------------------------------------------|
E|------------------------------------------------------------|
            5                                                     1
            D/G                                                   G
    You are love, You are love On display for all to see
    You are hope, You are hope You have covered all my sin      Last time - interlude
e|---------------------------------------------------------||---------------------|
B|----------8----------------------------------------------||------------------8--|
G|---------------------------------------------------------||-----7-h-9-----5-----|
D|----------9----------------------------------------------||--5---------9--------|
A|---------------------------------------------------------||---------------------|
E|---------------------------------------------------------||---------------------|

Verse 2:         1
                 G
    You are peace, You are peace When my fear is crippling
e|--------------------------------------------------------|
B|----------8---------------------------------------------|
G|--------------------------------------------------------|
D|----------10--------------------------------------------|
A|--------------------------------------------------------|
E|--------------------------------------------------------|
             5
            D/G
    You are true,  You are true Even in my wandering
e|-------------------------------------------------------------|
B|----------8--------------------------------------------------|
G|-------------------------------------------------------------|
D|----------9--------------------------------------------------|
A|-------------------------------------------------------------|
E|-------------------------------------------------------------|
            1
            G
    You are joy, You are joy You're the reason that I sing
e|--------------------------------------------------------|
B|----------8t--------------------------------------------|
G|----------9t--------------------------------------------|
D|---------10t--------------------------------------------|
A|--------------------------------------------------------|
E|--------------------------------------------------------|
             5                                                     1
            D/G                                                    G
    You are life, You are life,In You death has lost it's sting  [strum on beat last
time  and build]
e|-------------------------------------------------------------|---------------------------|
B|----------8t-------------------------------------------------|---8t----------------/-17--|
G|----------7t-------------------------------------------------|---9t----------------------|
D|----------9t-------------------------------------------------|--10t----------------------|
A|-------------------------------------------------------------|---------------------------|
E|-------------------------------------------------------------|---------------------------|

Chorus 1:
Play Lightly
   1                        5                       6                        5
   G                       D/G                      Em                      D/G
   Oh, Im running to Your arms  Im running to Your arms The riches of Your love
e|-------------------15-15-----------------17-17-----------------15-15----------------------|
B|--17-17-17-15-15-15-----17-17-17-15-15-15-----17-17-17-15-15-15-----17-17-17-15-----------|
G|-------------------------------------------------------------------------------16-16-17-17|
D|------------------------------------------------------------------------------------------|
A|------------------------------------------------------------------------------------------|
E|------------------------------------------------------------------------------------------|
      5            4                6         5      4                    6          5
 4
      D            C                Em        D      C                    Em         D
 C
   Will always be e-nough Nothing com-pares to Your em-brace Light of the world,
for-ever reign
e|-------------------15-15-|-----------------17-17-|----------------15-15-|--------------------|
B|--17-17-17-15-15-15------|-17-17-17-15-15-15-----|-17-17-17-15-15-15----|-17-17-17-15--------|
G|-------------------------|-----------------------|----------------------|---------16-16-17---|
D|-------------------------|-----------------------|----------------------|--------------------|
A|-------------------------|-----------------------|----------------------|--------------------|
E|-------------------------|-----------------------|----------------------|--------------------|
    4
    C
e|--------------------------------------------12--|
B|--10---10---10-p-8---8---10---10---10-p-8-------|
G|-----5----5--------5---5----5---5---------5-----|
D|------------------------------------------------|
A|------------------------------------------------|
E|------------------------------------------------|


Verse 3:             1
 Genital arpeggios   G
    You are more, You are more Than my words will ever say
e|--------------------------------------------------------|
B|-------8------------8-----------8-----------8-----------|
G|-----5------------5-----------5-----------5-----5-------|
D|--10-----------10-----------10----------10--------------|
A|--------------------------------------------------------|
E|--------------------------------------------------------|


             5
            D/G
    You are Lord, You are Lord All creation will proclaim
e|--------------------------------------------------------|
B|------8-----------8-----------8-----------8-------------|
G|----5-----------5-----------5-----------5---------------|
D|--9-----------9-----------9-----------9-----------------|
A|--------------------------------------------------------|
E|--------------------------------------------------------|

                        1
                        G
    You are here, You are here In your presence I'm made whole
e|--------------------------------------------------------|
B|----------8t--------------------------------------------|
G|----------9t--------------------------------------------|
D|---------10t--------------------------------------------|
A|--------------------------------------------------------|
E|--------------------------------------------------------|
             5
            D/G
    You are God, You are God Of all else I'm letting go          [Strum on beat last
time and build]
e|-------------------------------------------------------------|-------------10t------------|
B|----------8t-------------------------------------------------|---8t---------8t------/-17--|
G|----------7t-------------------------------------------------|---9t---------9t------/-17--|
D|----------9t-------------------------------------------------|--10t--------10t------------|
A|-------------------------------------------------------------|----------------------------|
E|-------------------------------------------------------------|----------------------------|

Chorus 2:
Play Heavy
    1                             5                          6
    G                            D/G                         Em
    Oh,      Im running to Your arms  Im running   to Your arms
e||----------------------15-15-|--------------------17-17---|
B||--17-17-17-15-15-15---15-15-|--17-17-17-15-15-15-17-17---|
G||--17-17-17-16-16-16---------|--17-17-17-16-16-18---------|
D||----------------------------|----------------------------|
A||----------------------------|----------------------------|
E||----------------------------|----------------------------|
                                     5
                                    D/G
    The      riches     of   Your   love  Will always be e-nough
e|----------------------15-15-----|-----------------------------|
B|--17-17-17-15-15-15---15-15-----|--17-17-17---15--------------|
G|--17-17-17-16-16-16-------------|--17-17-17---16-16-16-17-17--|
D|--------------------------------|----------------17-17-19-19--|
A|--------------------------------|-----------------------------|
E|--------------------------------|-----------------------------|
               6           5       4                    6          5    4
               Em          D       C                    Em         D    C
    Nothing com-pares    to Your    em-brace Light of the world, for-ever reign   [last
time slide down]
e|---------------------17-17-|--------------------15-15-|--------------------------||-----|
B|--17-17-17-15-15-15--17-17-|-17-17-17-15-15-15--15-15-|-17-17-17-15--------------||-----|
G|--17-17-17-16-16-16--------|-17-17-17-16-16-16--------|-17-17-17-16-16-16-17-----||--\--|
D|---------------------------|--------------------------|-------------17-17-19-----||--\--|
A|---------------------------|--------------------------|--------------------------||-----|
E|---------------------------|--------------------------|--------------------------||-----|
    4
    C
e|--------------------------------------------12--|
B|--10---10---10-p-8---8---10---10---10-p-8-------|
G|-----5----5--------5---5----5---5---------5-----|
D|------------------------------------------------|
A|------------------------------------------------|
E|------------------------------------------------|

Bridge:
     6                       4               1              5
     Em                      C               G              D
    My heart will sing, No other name  Jesus    Je-sus
e|-------5--------------|---------5---------|----------=--|-----------10--|
B|------8---------------|--------6----------|------8------|---------8-----|
G|-----5----------------|-------5-----------|-------------|---------------|
D|----5-----------------|------7-------/----|--10-----10--|---/---9-------|
A|---7------------------|-----8-------------|-------------|---------------|
E|--5-------------------|-------------------|-------------|---------------|
     6                       4               1               5
     Em                      C               G               D
    My heart will sing, No other name  Jesus    Je-sus
e|-------5-------------|----------5---------|-------------|-----------10--|
B|------8--------------|---------6----------|-----8-------|---------8-----|
G|-----5---------------|--------5-----------|-------------|---------------|
D|----5----------------|-------7-------/----|-10-----10---|---/---9-------|
A|---7-----------------|-----8--------------|-------------|---------------|
E|--5------------------|--------------------|-------------|---------------|

     6                       4               1               5
     Em                      C               G               D
    My heart will sing, No other name  Jesus    Je-sus
e|-------5-------------|----------5---------|-------------|-----------10--|
B|------8--------------|---------6----------|-------8-----|---------8-----|
G|-----5---------------|--------5-----------|-------------|---------------|
D|----5----------------|-------7-------/----|---10-----10-|---/---9-------|
A|---7-----------------|------8-------------|-------------|---------------|
E|--5------------------|--------------------|-------------|---------------|
      6                      4               1               5              4
     Em                      C               G               D              C
    My heart will sing, No other name  Jesus    Je-sus
e|-------5-------------|----------5---------|-------------|-----------10--|--5--|
B|------8--------------|---------6----------|-------8-----|---------8-----|--6--|
G|-----5---------------|--------5-----------|-------------|---------------|--5--|
D|----5----------------|-------7-------/----|---10-----10-|---/---9-------|--7--|
A|---7-----------------|------8-------------|-------------|---------------|--8--|
E|--5------------------|--------------------|-------------|---------------|-----|
Suggest correction
Give kudos to tab author, rate the tab!
1 2 3 4 5
comments
print report bad tab
guest
You may want to rate the tab now too:
select rating
Wanna post a correction for this tab? Suggest correction