Oops, an error
Loading. Please wait.

Glorious Ruins Tab

13,691 views 36 this week
5 commentsread comments
1 2 3 4 5
excellent!
x 10
add to favorites
launch autoscroll
font size
0
reset
how to read this tab
guitar tuner
Autoscroll
slow
fast
+/-
esc
set tempo
stop
Help us to improve Ultimate-Guitar.com Take our survey!
×
Author
Someone was nice enough to play the album version on youtube. I figured half of this out 
before I came across his video. Well, almost. XD
Link http://www.youtube.com/watch?v=Q0pZ2ZRxhmU

Intro
e-----------7-----------7-----------7-----------|
B------7-h9---9----7-h9---9----7-h9---9-7-5-h7-5|
G-9--9-----------9-----------9------------------|
D-----------------------------------------------|
A-----------------------------------------------|
E-----------------------------------------------|

Chorus
e-----------7-----------7-----------7-----------|
B------7-h9---9----7-h9---9----7-h9---9-7-5-h7-5|
G-9--9-----------9-----------9------------------|
D-----------------------------------------------|
A-----------------------------------------------|
E-----------------------------------------------|

e-----------7-----------7-----------7-----------|
B------7-h9---9----7-h9---9----7-h9---9-7-5-h7-5|
G-9--9-----------9-----------9------------------|
D-----------------------------------------------|
A-----------------------------------------------|
E-----------------------------------------------|

Mid verse (eg right after ~You are with me)
e----------------------------|
B----------------------------|
G----------------------------|
D-11-11-11-11-11-11--------11|
A------------------9-11/13---|
E----------------------------|

 Prechorus/solo interlude
e-14-14-14-14-13-13------------|
B-------------------12---------|
G----------------------13h15-15|
D------------------------------|
A------------------------------|
E------------------------------|
          Solo
e-14-11-9-------14----16-|
B---------12-11----14----|
G------------------------|
D------------------------|
A------------------------|
E------------------------|
(For the first 2 notes along with the 3rd and last notes the play each note 16 times. 
The rest, roughly 4 times each)Or you can let each note ring, up to you.

Well, I hope this helps. God bless and enjoy playing. =)
Suggest correction
comments
print report bad tab
5 comments total. Showing first comments.
0 reply
gohsam2001 224 wrote on August 2 2013, 11:02 pm

 Prechorus/solo interlude
e-14-14-14-14-13-13------------|
B-------------------13---------|
G----------------------13-15-13|
D------------------------------|
A------------------------------|
E------------------------------|


I missed out a few notes.

0 reply
gohsam2001 224 wrote on August 3 2013, 09:11 am

Prechorus/solo interlude
e-14-14-14-14-13-13------------|
B-------------------14---------|
G----------------------13-15-13|
D------------------------------|
A------------------------------|
E------------------------------

0 reply
sierra1998 10 wrote on January 3 2014, 11:38 pm

what key is this

guest
You may want to rate the tab now too:
select rating
Please do not post tabs as comments. Select "correction" instead!