Oops, an error
Loading. Please wait.

God Is Able tab

version 1
version 1

Whole song

Interactive

4,461 views 3 this week
3 commentsread comments
1 2 3 4 5
x 5
add to favorites
×
Save as Personal and add changes to this tab that will be seen only by you. Learn more ›
×
You can save this tab as Personal to edit and correct it or add notes. All changes will be seen only by you. Learn more »
launch autoscroll
font size
0
reset
how to read this tab
guitar tuner
edit
Autoscroll
slow
fast
+/-
esc
set tempo
stop
Author
Difficulty
Intro
e------------------------11-12-12-11-------------------------------------------|
B-14s12-12h14-14s12-12-----------------14-12-12-14-14-12------------12---------|
G----------------------------------------------------------11-13-13------------|
D------------------------------------------------------------------------------|
A------------------------------------------------------------------------------|
E------------------------------------------------------------------------------|

Pre-Chorus
e------------------------------------------------------------------------------|
B------------------------------------------------------------------------------|
G------------------------------------------------------------------------------|
D------------------------------------------------------------------------------|
A------------------------------------------------------------------------------|
E------------------------------------------------------------------------------|

1st Chorus
e------------------------------------------------------------------------------|
B------------------------------------------------------------------------------|
G------------------------------------------------------------------------------|
D------------------------------------------------------------------------------|
A------------------------------------------------------------------------------|
E------------------------------------------------------------------------------|

sorry forthe unfinished. I will finish it when I can. sorry again.
Suggest correction
Creating personal tab
Creating personal tab
You can edit any tab online and save it as your Personal.

You can edit, replace or remove any tab part or add personal notes – all changes will be seen only by you.

Personal tabs can be accessed anytime from any device, even offline.
Learn more »
comments
print report bad tab
3 comments total.
0 reply
Rockhead1412 93 Feb 18, 2013 07:57 AM

e------------------------11-12-12-11-------------------------------------------|
B-14p12-12h14-14p12-12-----------------14p12-12h14-14p12-12------------12---------|
G----------------------------------------------------------11-13-13------------|
D------------------------------------------------------------------------------|
A------------------------------------------------------------------------------|
E------------------------------------------------------------------------------|

0 reply
Rockhead1412 93 Mar 09, 2013 12:35 PM

e------------------------11-12-12-11-------------------------------------------|
B-14p12-12h14-14p12-12-----------------14p12-12h14-14p12-12------------12------|
G----------------------------------------------------------11-13-13------------|
D------------------------------------------------------------------------------|
A------------------------------------------------------------------------------|
E------------------------------------------------------------------------------|

0 reply
Nchls 111 Jun 04, 2016 02:55 AM

didn't like this contribution

guest
You may want to rate the tab now too:
select rating
Wanna post a correction for this tab? Suggest correction