Oops, an error
Loading. Please wait.

In God We Trust Tab

version 2
version 2

Whole song

58 views 1 this week
no commentswrite comment
1 2 3 4 5
x 4
add to favorites
launch autoscroll
font size
0
reset
how to read this tab
guitar tuner
Autoscroll
slow
fast
+/-
esc
set tempo
stop
Help us to improve Ultimate-Guitar.com Take our survey!
×
Author
Difficulty
novice
// In God We Trust - Hillsong Live//

Tabbed by Izach Prince Paul

God bless.





[Intro]

e|------------5-7---|
B|--7-7-7-5h7-------|
G|------------------|   x3
D|------------------| 
A|------------------|
E|------------------|

e|-------------------|
B|--7-7-7-5-7-----7--|
G|------------7-9----|  x1  Ending of the Intro
D|-------------------|
A|-------------------|
E|-------------------|


[Verse 1]

e|---------------------------------------------------------------------------|
B|---------------------------------------------------------------------------|
G|------4-------4--------11--------11-------6-------6-------7-------7--------|
D|----0---0---0---0----0----0----0----0---0---0---0---0---0---0---0---0------|
A|---------------------------------------------------------------------------|
E|--3-------3-------10--------10--------5-------5-------7-------7------------|

e|-----------------------------------------------------------------------------|
B|-----------------------------------------------------------------------------|
G|------4-------4--------11--------11-------6-------6-------7-------7-----6----|
D|----0---0---0---0----0----0----0----0---0---0---0---0---0---0---0---0-----0--|
A|-----------------------------------------------------------------------------|
E|--3-------3-------10--------10--------5-------5-------7-------7-------5------|


[Intro]

e|------------5-7---|
B|--7-7-7-5h7-------|
G|------------------|   x3
D|------------------| 
A|------------------|
E|------------------|

e|-------------------|
B|--7-7-7-5-7-----7--|
G|------------7-9----|  x1  Ending of the Intro
D|-------------------|
A|-------------------|
E|-------------------|


[Verse 2]

e|---------------------------------------------------------------------------|
B|---------------------------------------------------------------------------|
G|------4-------4--------11--------11-------6-------6-------7-------7--------|
D|----0---0---0---0----0----0----0----0---0---0---0---0---0---0---0---0------|
A|---------------------------------------------------------------------------|
E|--3-------3-------10--------10--------5-------5-------7-------7------------|

e|-----------------------------------------------------------------------------|
B|-----------------------------------------------------------------------------|
G|------4-------4--------11--------11-------6-------6-------7-------7-----6----|
D|----0---0---0---0----0----0----0----0---0---0---0---0---0---0---0---0-----0--|
A|-----------------------------------------------------------------------------|
E|--3-------3-------10--------10--------5-------5-------7-------7-------5------|





[Chorus]
    
    G  D   A   Bm A
e|--3--2--------------|
B|--0--3---2---3--2---|
G|--0--2---2---4--2--O|
D|--0--0---2---4--2---|
A|--2------0---2--0--O|
E|--3-----------------|



[Interlude}

e|------------5-7---|
B|--7-7-7-5h7-------|
G|------------------|   x3
D|------------------| 
A|------------------|
E|------------------|

e|-------------------|
B|--7-7-7-5-7-----7--|
G|------------7-9----|  x1  
D|-------------------|
A|-------------------|
E|-------------------|



[Bridge] 

e|--------------------------------------------------------------------------------------------------|
B|--------------------------------------------------------------------------------------------------|
G|-------11--------11----------2----------2-----------7----------7-------------6-----------6--------|
D|-----12--12----12--12------2---2------2---2-------7---7------7---7---------7---7-------7---7------|
A|--------------------------------------------------------------------------------------------------|
E|--10---------10----------2----------2-----------7----------7-------------5-----------5------------|




[Chorus]
    
    G  D   A   Bm A
e|--3--2--------------|
B|--0--3---2---3--2---|
G|--0--2---2---4--2--O|
D|--0--0---2---4--2---|
A|--2------0---2--0--O|
E|--3-----------------|





[Outro]

e|------------5-7---|
B|--7-7-7-5h7-------|
G|------------------|   x3
D|------------------| 
A|------------------|
E|------------------|

e|-------------------|
B|--7-7-7-5-7-----7--|
G|------------7-9----|  x1  
D|-------------------|
A|-------------------|
E|-------------------|

e|------------5-7---|
B|--7-7-7-5h7-------|
G|------------------|   x3
D|------------------| 
A|------------------|
E|------------------|

e|-------------------|
B|--7-7-7-5-7-----7--|
G|------------7-9----|  x1  
D|-------------------|
A|-------------------|
E|-------------------|



************************************

| x   Dead note
| g   Grace note
| (n) Ghost note
| h   Hammer-on
| p   Pull-off
| r   Release
| >   Accented note
| t   Tapping
| b   Bend
| br  Bend release
| pb  Pre-bend
| pbr Pre-bend release
| /   Slide up
| \   Slide down
| ~   Vibrato
| s   Slap
| P   Pop
| PM  Palm mute
| TR  Trill
| N   Tremolo

************************************
Suggest correction
comments
print report bad tab
guest
You may want to rate the tab now too:
select rating
Wanna post a correction for this tab? Suggest correction