Oops, an error
Loading. Please wait.

Open Heaven River Wild tab

649 views 3 this week
2 commentsread comments
1 2 3 4 5
2 more votes to show rating
add to favorites
×
Save as Personal and add changes to this tab that will be seen only by you. Learn more ›
×
You can save this tab as Personal to edit and correct it or add notes. All changes will be seen only by you. Learn more »
launch autoscroll
font size
0
reset
how to read this tab
guitar tuner
edit
Autoscroll
slow
fast
+/-
esc
set tempo
stop
Author
Difficulty
-------------------------------------------------------------------------------
                             Open Heaven (River Wild)
                                 Hillsong Live
-------------------------------------------------------------------------------
Tabbed by: mikeswimby
E-mail: mikeswimby@me.com

Tuning: Standard

Guitar 1:

Intro:

    Fmsj7   G       Am      C/E
e|------------------------------------5------||
B|--5---5---5---5---5---5---5---5---8--------||
G|----7---7---7---7---7---7---7---7-----5---O||
D|------------------------------------------O||
A|-------------------------------------------||
E|-------------------------------------------||

Verse:

    Fmaj7 G     Am    C/E
e|---------------------------||
B|---------------------------||
G|--2-----4-----5-----0-----O||
D|--------------------------O||
A|---------------------------||
E|--1-----3-----5-----0------||


Chorus:

    Fmaj7    G       Am      C/E
e|----------------------------------------||
B|---5---5---3---8---5---5---4b5br4-2-0---||
G|-----5---5---5---5---5---5-------------O||
D|---------------------------------------O||
A|----------------------------------------||
E|----------------------------------------||


Bridge:

    F   G   C/E     F             G   C/E      F
e|------------------------------------------------|
B|--1---------------------------------------------|
G|--0---0-----------------------------------------|
D|--3---0---5--10-9-7----10---14--9---5---10-9-7--|
A|------------------------------------------------|
E|------3-----------------------------------------|
  " Living water.... "
    F               G               C/E           F
e|------------------------------------------------------------------|
B|--8---8---8---8---8---8---8---8---8---8---8---8---6---6---6---6---|
G|----5---5---5---5---7---7---7---7---5---5---5---4---5---5---5---5-|
D|------------------------------------------------------------------|
A|------------------------------------------------------------------|
E|------------------------------------------------------------------|

    F               G               C/E             F
e|-------------------------------------------------------------------|
B|--8---8---8---8---8---8---8---8---8---8---8---8---8-8-8-8-8-8-8-8--|
G|----5---5---5---5---4---4---4---4---5---5---5---4-5-5-5-5-5-5-5-5--|
D|-------------------------------------------------------------------|
A|-------------------------------------------------------------------|
E|-------------------------------------------------------------------|
  " Holy Spirit.... "
    F                G               C/E               F
e|---8---8---8---8---7---7---7---7---10---10---8---7---5---5---5---5----|
B|-----8---8---8---8---8---8---8---8----8----8---8---8---6---6---6---6--|
G|----------------------------------------------------------------------|
D|----------------------------------------------------------------------|
A|----------------------------------------------------------------------|
E|----------------------------------------------------------------------|

    F                G               C/E               F
e|---8---8---8---8---7---7---7---7---10---10---8---7----5-5-5-5-5-5-5-5--|
B|-----8---8---8---8---8---8---8---8----8----8---8---8--6-6-6-6-6-6-6-6--|
G|-----------------------------------------------------------------------|
D|-----------------------------------------------------------------------|
A|-----------------------------------------------------------------------|
E|-----------------------------------------------------------------------|
 
Instrumental:
     .....tremolo picking......
      F      G    C/E       F
e||---8--12--7----10--8--7--5------||
B||--------------------------------||
G||O--5--9---4----7---5--4--2-----O||
D||O------------------------------O||
A||--------------------------------||
E||--------------------------------||

    F                               G               
e|--8-8-8-8-8-8-8-8-8-8-8-8-8-8-8-8-7-7-7-7-7-7-7-7-7-7-7-7-7-7-7-7--|
B|--8-8-8-8-8-8-8-8-8-8-8-8-8-8-8-8-8-8-8-8-8-8-8-8-8-8-8-8-8-8-8-8--|
G|-------------------------------------------------------------------|
D|-------------------------------------------------------------------|
A|-------------------------------------------------------------------|
E|-------------------------------------------------------------------|

    C/E                                     F
e|--10-10-10-10-10-10-10-10-8-8-8-8-7-7-7-7-5-5-5-5-5-5-5-5-5-5-5-5-5-5-5-5--|
B|--8--8--8--8--8--8--8--8--8-8-8-8-8-8-8-8-6-6-6-6-6-6-6-6-6-6-6-6-6-6-6-6--|
G|---------------------------------------------------------------------------|
D|---------------------------------------------------------------------------|
A|---------------------------------------------------------------------------|
E|---------------------------------------------------------------------------|

    F                               G               
e|--8-8-8-8-8-8-8-8-8-8-8-8-8-8-8-8-7-7-7-7-7-7-7-7-7-7-7-7-7-7-7-7--|
B|--8-8-8-8-8-8-8-8-8-8-8-8-8-8-8-8-8-8-8-8-8-8-8-8-8-8-8-8-8-8-8-8--|
G|-------------------------------------------------------------------|
D|-------------------------------------------------------------------|
A|-------------------------------------------------------------------|
E|-------------------------------------------------------------------|

    C/E                                     F
e|--10-10-10-10-10-10-10-10-8-8-8-8-7-7-7-7-5-5-5-5-5-5-5-5-5-5-5-5-5-5-5-----|
B|--8--8--8--8--8--8--8--8--8-8-8-8-8-8-8-8-6-6-6-6-6-6-6-6-6-6-6-6-6-6-6-8---|
G|------------------------------------------------------------------------10--|
D|------------------------------------------------------------------------10--|
A|----------------------------------------------------------------------------|
E|----------------------------------------------------------------------------|


*******************************************************************************

Guitar 2:

Intro, Verse and Chorus:
  ......let ring........
    Fmaj7 G    Am   C/E
e|------------------------|
B|--------0----1----------|
G|--3---------------0-----|
D|------------------------|
A|-------------0----------|
E|--1-----3---------0-----|

Bridge:
   ...swell chords.....
      F   G   C/E F
e||--------------------||
B||---1---3---1---1----||
G||O--0---0---0---0---O||
D||O--3---5---2---3---O||
A||--------------------||
E||--------------------||

      F               G               Am              F
e||---------------------------------------------------------------------||
B||---1-1-1-1-1-1-1-1-3-3-3-3-3-3-3-3-1-1-1-1-1-1-0-0-1-1-1-1-1-1-1-1---|| Repeat through
G||O--0-0-0-0-0-0-0-0-0-0-0-0-0-0-0-0-0-0-0-0-0-0-0-0-0-0-0-0-0-0-0-0--O|| bridge sections
D||O--3-3-3-3-3-3-3-3-5-5-5-5-5-5-5-5-2-2-2-2-2-2-2-2-3-3-3-3-3-3-3-3--O|| Full G chords 
A||---------------------------------------------------------------------|| are sometimes
E||---------------------------------------------------------------------|| used



************************************

Chords:

Intro:

Fmaj7 G Am C/E


Verse1:
Am        C/E           F    G    Am
Signs and wonders from above
         C/E             F      G    Am
When You poured out Your Spirit
       C/E         F     G    Am
On the old and the young
       C/E           F        G    Am
In the power of Your presence


Chorus:
C/E         F     G             Am
Holy Spirit rain, falling like a flood
C/E           F            G           Am
Break upon my praise, as I sing of Your love
C/E         F     G             Am
Holy Spirit fire, burn within my soul
     C/E          F     G    Am
As I call on Your name
     C/E          F     G    Am
As I call on Your name


Verse2:
           C/E            F    G    Am
Dreams and visions of the Son
     C/E           F        G    Am
As I stand in Your presence
    C/E             F     G    Am
Revelations of Your love
     C/E         F       G    Am
As I look to the heavens


Bridge:
F               G
Oh Holy Spirit, burn like a fire
C/E            F
All consuming, consume me
F                      G                C/E
Here in Your presence, Lord I surrender to Your glory
F
For Your glory


F             G
Living water, river wild in me
C/E       F
Immerse me in Your mercy
F            G
Open heaven, crashing over me
C/E       F
Restore me in Your glory

***********************************

| /   slide up
| \   slide down
| h   hammer-on
| p   pull-off
| ~   vibrato
| +   harmonic
| x   Mute note
| b   Bend
| pb  Pre-bend
| br  Bend release
| pbr Pre-bend release
| brb Bend release bend

************************************

            
            
Suggest correction
Creating personal tab
Creating personal tab
You can edit any tab online and save it as your Personal.

You can edit, replace or remove any tab part or add personal notes – all changes will be seen only by you.

Personal tabs can be accessed anytime from any device, even offline.
Learn more »
Give kudos to tab author, rate the tab!
1 2 3 4 5
comments
print report bad tab
2 comments total.
0 reply
abraham_heroe 10 Nov 09, 2015 01:51 AM

Verse:

Fmaj7 G Am C/E
e|---------------------------||
B|---------------------------||
G|--3-----4-----5-----0-----O||
D|--------------------------O||
A|---------------------------||
E|--1-----3-----5-----0------||

Isn't this wrong? 1-3 is wrong i think the correct one is 1-2
Verse:

Fmaj7 G Am C/E
e|---------------------------||
B|---------------------------||
G|--2-----4-----5-----0-----O||
D|--------------------------O||
A|---------------------------||
E|--1-----3-----5-----0------||

guest
You may want to rate the tab now too:
select rating
Wanna post a correction for this tab? Suggest correction