Oops, an error
Loading. Please wait.

This I Believe The Creed Tab

17,032 views 84 this week
3 commentsread comments
1 2 3 4 5
x 9
add to favorites
launch autoscroll
font size
0
reset
how to read this tab
guitar tuner
Autoscroll
slow
fast
+/-
esc
set tempo
stop
Help us to improve Ultimate-Guitar.com Take our survey!
×
Author
This I Believe (The Creed)
Tabbed by: mikeswimby
E-mail: mikeswimby@me.com
Tuning: Standard

Guitar 1:
 
[Verse] (on the recording there are no guitars until the 1st chorus)
  F                    Am   G                  C/E
e|---------------------------------------------------------------------------|
B|---5----5----5----5--8-8----3----3----3----3-------------------------------|
G|---5----5----5----5--9-9----4----4----4----4--5-4--------------------------|
D|-7----7----7----7---------5----5----5----5---------------------------------|
A|---------------------------------------------------------------------------|
E|---------------------------------------------------------------------------|

  F                             G                   C/E
e|---------------------------------------------------------------------------|
B|---5----5----5----5--------5----3----3----3----3---------------------------|
G|---5----5----5----5--5-h-7-5----4----4----4----4--5-4----------------------|
D|-7----7----7----7-------------5----5----5----5-----------------------------|
A|---------------------------------------------------------------------------|
E|---------------------------------------------------------------------------|

  F                    Am   G                C/E
e|---------------------------------------------------------------------------|
B|---5----5----5----5--8-8----3----3----3----3-------------------------------|
G|---5----5----5----5--9-9----4----4----4----4--5-4--------------------------|
D|-7----7----7----7---------5----5----5----5---------------------------------|
A|---------------------------------------------------------------------------|
E|---------------------------------------------------------------------------|

  F                             G
e|---------------------------------------------------------------------------|
B|---5----5----5----5--------5----3----3----3----3-3-------------------------|
G|---5----5----5----5--5-h-7-5----4----4----4----4-4-------------------------|
D|-7----7----7----7-------------5----5----5----5-----------------------------|
A|---------------------------------------------------------------------------|
E|---------------------------------------------------------------------------|

[Chorus]
   C    Dm   F    G    Am   F    C   Dm   F    G    Am   F    G    (C to bridge)
e|-----------------------------------------------------------------(8)-------|
B|-5----6----------------------------------------------------------(8)-------|
G|-5----7----2----4----5----2----9---7----2----4----5----2----4----(5)-------|
D|-----------------------------------------------------------------(5)-------|
A|-3----5--------------------------------------------------------------------|
E|-----------1----3----5----1----8---7-=--1----3----5----1----3--------------|


[Bridge]
   F             Am           G         C/E
e|-------5---8-------8-----8------7-7---8-7-5--------------------------------|
B|-5-h-8---5---8---8-----8------8---8---------8-5----------------------------|
G|---------------5-----5------7-------7--------------------------------------|
D|---------------------------------------------------------------------------|
A|---------------------------------------------------------------------------|
E|---------------------------------------------------------------------------|

  F              Am           G         C/E
e|-------5---8-------8-----8------7-7---8-7-5--------------------------------|
B|-5-h-8---5---8---8-----8------8---8---------8-5----------------------------|
G|---------------5-----5------7-------7--------------------------------------|
D|---------------------------------------------------------------------------|
A|---------------------------------------------------------------------------|
E|---------------------------------------------------------------------------|

   F                          G                C
e|-------5---8-------8-----8------7-----7---------12----12----10----12--8----|
B|-5-h-8---5---8---8-----8------8---8-----8---/13----13----13----13----------|
G|---------------5-----5------7-------7-----7--------------------------------|
D|---------------------------------------------------------------------------|
A|---------------------------------------------------------------------------|
E|---------------------------------------------------------------------------|

e|------12----12----10----12--8----------------------------------------------|
B|--/13----13----13----13-----8----------------------------------------------|
G|---------------------------------------------------------------------------|
D|---------------------------------------------------------------------------|
A|---------------------------------------------------------------------------|
E|---------------------------------------------------------------------------|


Guitar 2:

[Verse] Is played exactly the same as guitar 1

[Chorus]
   C                        Dm     F                       G
e|-12----12----12----12-----15-15--12----12----12----12----15-15-------------|
B|----13----13----13-----13-----------13----13----13----13-------------------|
G|---------------------------------------------------------------------------|
D|---------------------------------------------------------------------------|
A|---------------------------------------------------------------------------|
E|---------------------------------------------------------------------------|

   Am                         F
e|-8----8----8----8----10-12--8---8---8---8----10-12-------------------------|
B|---10---10---10---10----------6---6---6---6--------------------------------|
G|---------------------------------------------------------------------------|
D|---------------------------------------------------------------------------|
A|---------------------------------------------------------------------------|
E|---------------------------------------------------------------------------|

   C                        Dm     F                       G
e|-12----12----12----12-----15-15--12----12----12----12----15-15-------------|
B|----13----13----13-----13-----------13----13----13----13-------------------|
G|---------------------------------------------------------------------------|
D|---------------------------------------------------------------------------|
A|---------------------------------------------------------------------------|
E|---------------------------------------------------------------------------|

  (play this to go to the bridge otherwise follow the chords back around or to end)
   Am                         F       G       C       C/E
e|-8----8----8----8----10-12--8---8---10---10---8---8------------------------|
B|---10---10---10---10----------6---6----6----6---6---5-5-5-5----------------|
G|---------------------------------------------------------------------------|
D|---------------------------------------------------------------------------|
A|---------------------------------------------------------------------------|
E|---------------------------------------------------------------------------|

[Bridge] here's the chords, they're just strummed
   F   Am   G    C/E   F    Am   G    C/E   F    G    C
e|---------------------------------------------------------------------------|
B|-1---5----3----8-----1----5----3----8-----1----3----3----------------------|
G|-2---5----4----9-----2----5----4----9-----2----4----5----------------------|
D|-3---7----5----10----3----7----5----10----3----5----5----------------------|
A|----------------------------------------------------3----------------------|
E|---------------------------------------------------------------------------|

************************************

| h    Hammer-on
| (n)  Ghost note
| /    Slide up

************************************

[Chords]

[Verse 1]
F               Am     
 Our Father everlasting
G             C/E    
 The all creating One
F       G     C/E
 God Almighty
F                  Am    
 Through Your Holy Spirit
G                    C/E  
 Conceiving Christ the Son
F           G
 Jesus Our Saviour

[Chorus 1]
C                     Dm
 I believe in God our Father
F                        G
 I believe in Christ the Son
Am                            
  I believe in the Holy Spirit
F                       
 Our God is three in One
C                      Dm
 I believe in the resurrection
F                   G
 That we will rise again
Am                     F       G
  For I believe in the Name of Jesus

[Verse 2]
F                    Am
 Our Judge and our Defender
G                C/E
 Suffered and crucified
F                 G   C/E
 Forgiveness is in You
F               Am
 Descended into darkness
G                  C/E
 Your rose in glorious life
F              G
 Forever seated high

[Chorus 1]
C                     Dm
 I believe in God our Father
F                        G
 I believe in Christ the Son
Am                            
  I believe in the Holy Spirit
F                       
 Our God is three in One
C                      Dm
 I believe in the resurrection
F                   G
 That we will rise again
Am                     F       G     C    C/E
  For I believe in the Name of Jesus

[Bridge]
     F   Am  G   C/E  
I believe in You
     F        Am     G   C/E
I believe You rose again
    F          G               C
I believe that Jesus Christ is Lord

[Chorus 2]
C                   Dm
 I believe in life eternal
F                        G
 I believe in the Virgin birth
Am                            
  I believe in the Saints' communion
F                       
 And in Your holy Church
C                      Dm
 I believe in the resurrection
F                  G   
 When Jesus comes again
Am                     F       G     C
  For I believe in the Name of Jesus
Suggest correction
comments
print report bad tab
3 comments total.
0 reply
wllillies 10 Nov 03, 2014 08:42 PM

This tab project would be great if there was a plain version as well, without the guitar parts at the top. Great Work though thanks for adding it.......

0 reply
KalubKurt519 12 Jan 30, 2015 09:47 PM

AMAZING!!!!!!!!!!!!!

0 reply
bass.desires 138 Jul 20, 2016 07:22 PM

There is a droning guitar from the beginning. If you listen very closely there is a guitar doing trem-picking on the high E string 8th fret (C) with lots of reverb. Very nice backdrop to the piano. Trem picking seems to be gaining popularity in worship as a 'filler' effect.

guest
You may want to rate the tab now too:
select rating
Wanna post a correction for this tab? Suggest correction