Oops, an error
Loading. Please wait.

With Us bass

version 1
version 1

Whole song

Interactive

1,828 views 1 this week
no commentswrite comment
1 2 3 4 5
3 more votes to show rating
add to favorites
×
Save as Personal and add changes to this tab that will be seen only by you. Learn more ›
×
You can save this tab as Personal to edit and correct it or add notes. All changes will be seen only by you. Learn more »
launch autoscroll
font size
0
reset
guitar tuner
edit
Autoscroll
slow
fast
+/-
esc
set tempo
stop
Author
Difficulty
I know this isn't exactly right but I tried. I needed to tab this for a friend to see.
But it's the song With Us from Hillsong Live's album God Is Able. No copyright intended.
God bless!!

Intro:

G:------------------------------------------------------------------|
D:------------------------------------------------------------------|
A:-----------------10-10-10-10-10-10-10-10--------------------------|
E:7-7-7-7-7-7-7-7---------------------------10-10-10-10-10-10-10-10-|

G:-----------------------------------------------------------------|
D:-----------------------------------------------------------------|
A:12-12-12-12-12-12-12-12------------------------------------------|
E:-----------------------------------------------------------------|

Verse: Same as intro except a little quieter.

Chorus:

G:---------------------------------------------------------|
D:---------------------------------------------------------|
A:5-5-5--5-5-5----------------2-2-2--2-2-2-----------------|
E:---------------3-3-3--3-3-3--------------3-3-3-3-3-3-3-3-|

Intrumental Break(between second chorus and bridge):

G:-------------------------------------------------------------------|
D:-------------------------------------------------------------------|
A:2-2-2-2-2-2-2-2-2-2-2-2-4-4-4-4-5-5-5-5----------------------------|
E:-------------------------------------------------------------------|

G:--------------------------------------------------------------------|
D:--------------------------------------------------------------------|
A:10-10-10-10-10-10-10-10-10-10-10-10-5-5-5-5-5-5-5-5-5-5-5-5-5-5-5-5-|
E:--------------------------------------------------------------------|

G:-------------------------------------------------------------------|
D:-------------------------------------------------------------------|
A:-------------------------------------------------------------------|
E:5-5-5-5/12-12-12-12-12-12-12-12-12-12-12-12------------------------|

Bridge:

G:-----------------------|
D:------------11--12-----|
A:10--12--14----------12-|
E:-----------------------|
Second time keep a 16th note rhythm instead of single notes
G:------------------------------------------------|
D:------------------------------------------------|
A:------------------------------------------------|
E:3-3-3-3-3-3-3-3-5-5-5-5-7-7-7-7-7-7-7-7-7-7-7-7-|

G:-----------------------------------------------------------------------|
D:-----------------------------------------------------------------------|
A:4-4-4-4-5-5-5-5-5-5-5-5-5-5-5-5-5-5-5-5--------------------------------|
E:---------------------------------------5-5-5-5-5-5-5-5-5-5-5-5-5-5-5-5-|

            
            
Suggest correction
Creating personal tab
Creating personal tab
You can edit any tab online and save it as your Personal.

You can edit, replace or remove any tab part or add personal notes – all changes will be seen only by you.

Personal tabs can be accessed anytime from any device, even offline.
Learn more »
Give kudos to tab author, rate the tab!
1 2 3 4 5
comments
print report bad tab
guest
You may want to rate the tab now too:
select rating
Wanna post a correction for this tab? Suggest correction