Oops, an error
Loading. Please wait.

Hail To The King Tab

version 1
version 1

Whole song

6,049 views 1 this week
2 commentsread comments
1 2 3 4 5
please rate
add to favorites
launch autoscroll
font size
0
reset
how to read this tab
guitar tuner
Autoscroll
slow
fast
+/-
esc
set tempo
stop
Help us to improve Ultimate-Guitar.com Take our survey!
×
This is my first tab so it stinks but its correct (whatever that meant)

Enjoy!

Intro/Verse 1:

e--------------------------|
B--------------------------|
G-5-----10-----9-----------|
D-5(4x)-10(2x)-9(2x)-------| 2x
A-3-----8------7-----------|
E--------------------------|

e--------------------------|
B--------------------------|
G--------------------------|
D-5-----3-----8------------|
A-5(8x)-3(4x)-8(4x)--------|
E-3-----1-----6------------|

Chorus:

e-------------------------------------|
B-------------------------------------|
G--------5-------------5--------------|
D-3------5(16x)-5------5(16x)---------|
A-3(16x)-3------5(16x)-3--------------|
E-1-------------3---------------------|

e-------------------------------------|
B-------------------------------------|
G--------5----------------------------|
D-3------5(8x)-7-----8----------------|
A-3(16x)-3-----7(8x)-8(24x)-----------|
E-1------------5-----6----------------|


Verse 

Chorus

Solo (Your guess is as good as mine)

Bridge (Play the chords for the chorus palm muted)

Outro:

e--------------------------|
B--------------------------|
G-5------------------------|
D-5-----7-----8------------| (Keep playing till end)
A-3-----7-----8------------|
E-------5-----6------------| 
Suggest correction
What's this?
You can suggest a correction to this tab. Community and Mods will review your correction and vote to approve or reject it.
comments
We did not receive enough feedback on this tab! Please rate:
print report bad tab
1 2 3 4 5
2 comments total.
0 reply
breulet89 12 wrote on November 3 2011, 05:41 pm

Search for in Piece Artist Advanced
Remove frame & printable versionGuitar tablature for "Hail To The King" by "Hillsong London"
Artist: Hillsong London
Piece: Hail To The King
Instrument: Guitar
Submitter: eddie van halen
Tab provided by tTabs

Ratings
This Hail To The King Guitar tab is rated:
Quality: ; 5 out of 5. Rated 3 times.

It has been viewed 443 times.

Rate this tablature!

Intro:

----------------------- -------------------------------------
----------------------- -------------------------------------
----------------------- -------------------------------------
------------3-3-2-2---- x4 then --------------------------1-1-1-1----
---3-3-3-3------------- ------------------1-1-1-1------------
----------------------- --3-3-3-3-3-3-3-3--------------------

----------------------- -------------------------------------
----------------------- -------------------------------------
chorus: ----------------------- -------------------------------------
------------3-3-2-2---- x6 then --------------------------1-1-1-1----
---3-3-3-3------------- ------------------1-1-1-1------------
----------------------- --3-3-3-3-3-3-3-3--------------------

----------------------- -------------------------------------
----------------------- -------------------------------------
----------------------- -------------------------------------
------------3-3-2-2---- x6 then --------------------------1-1-1-1----
---3-3-3-3------------- ------------------1-1-1-1------------
----------------------- --3-3-3-3-3-3-3-3-------------

0 reply
breulet89 12 wrote on November 3 2011, 05:44 pm

solo:

--------------------------------
-5--5-----------------5-5-8-8-8-
--5--5--5-5-0--5-5-5-5----------
--------------------------------
--------------------------------
--------------------------------

---------------------------------
-5--5-----------------5-3--------
--5--5--5-5-0--5-5-5-5----10-9---
------------------------------10-
---------------------------------
---------------------------------

Followed by: (Am pentatonic)
------------------------------
------------------------------
-7b9-b9-b9r7p5-5-7b9-b9-b9-b9-
--------------7---------------
------------------------------
------------------------------

------------------------------
-------------------8----------
-b9r7p5-5-----5-7s9-9---------
-------7---5-7-------10-7-10--
------------------------------
------------------------------

strum
-------------------------------
----13-13-------15b17r15-13-15-
-10s12-12--(5x)----------------
-------------------------------
-------------------------------
-------------------------------

------------------------------
-15b17--15--13----------------
------------------------------
------------------------------
------------------------------
------------------------------

guest
You may want to rate the tab now too:
select rating
Please do not post tabs as comments. Select "correction" instead!