Oops, an error
Loading. Please wait.

How Great Is Our God Bass Tab

5,979 views 18 this week
no commentswrite comment
1 2 3 4 5
please rate
add to favorites
launch autoscroll
font size
0
reset
guitar tuner
Autoscroll
slow
fast
+/-
esc
set tempo
stop
Help us to improve Ultimate-Guitar.com Take our survey!
×
Author
Difficulty
novice
-------------------------------------------------------------------------------
			     SONG NAME - Hillsong London - How great is our God
-------------------------------------------------------------------------------

Tabbed By : Christoffer Eenberg
e-mail: Crofel@hotmail.com

Tuning: Standard

Intro 0:46
G|--------------------|
D|--------------------|
A|--5r----------------|
E|--------------------|

Verse
0:52 The splender of the.. 0:58                                                   1:12
G|------------------|----------------------|------------------------------|
D|------------------|----------------------|------------------------------|
A|--5r--------------|--5h6p5----2----2h3---|------------5----9--7--2------|
E|------------------|----------------------|--3----3----------------------|

G|------------------|--------------------------------------------------------|
D|------------------|--------------------------------------------------------|
A|--5----9/7--2-----|-----------2h3p2------|---------------------------------|
E|------------------|--------------------------------------------------------|

Chorus
1:32                                           1:45
G|--------------------|--------------------|
D|--------------------|--------------------|
A|--5----5----2----2--|------------5----5--|
E|--------------------|--3----5------------|

Verse 1:58
G|------------------|----------------------------|-------------------------|
D|------------------|----------------------------|-------------------------|
A|--5r--------------|--5h6---\2----2--3----------|------------2----2-------|
E|------------------|-------------------3-----3--|--0----0-----------------|

G|--------------------|
D|--------------------|
A|--2h3p2-------------|
E|---------3----3-----|

Chorus 2:38 – play until the end
G|--------------------|--------------------|
D|--------------------|--------------------|
A|--5----5----2----2--|------------5----5--|
E|--------------------|--3----5------------|
Suggest correction
Give kudos to tab author, rate the tab!
1 2 3 4 5
comments
print report bad tab
guest
You may want to rate the tab now too:
select rating
Wanna post a correction for this tab? Suggest correction