Oops, an error
Loading. Please wait.

All Day Chords

version 1
version 1

Whole song

Interactive

82,468 views 81 this week
3 commentsread comments
1 2 3 4 5
accurate
x 9
add to favorites
launch autoscroll
font size
0
reset
transpose
0
reset
display chords
guitar tuner
Autoscroll
slow
fast
+/-
esc
set tempo
stop
Help us to improve Ultimate-Guitar.com Take our survey!
×
ALL DAY - HILLSONG UNITED

Verse 1:
G#          E                   B               F#
I don't care what they say about me
G#    E       B  F#
It's alright, alright
G#        E             B               F#
I don't care they think about me
G#   E                   B               F#
It's alright, they'll get it one day


Pre-Chorus
G#      E          B       F#
I love you, I'll follow you
G#      E          B       F#
You are my, my life
G#      E          B       F#
I will read my bible and pray
G#      E          B       F#
I will follow you all day

Guitar Solo

Verse 2:
G#          E                   B               F#
I don't care what it costs anymore
G#          E                   B               F#
Cos' you gave it all and I'm following you
G#          E                   B               F#
I don't care what it takes anymore
G#          E                   B               F#
No matter what happens I'm going your way

Pre-Chorus

Chorus:
B     E
All Day
B     F#
All Day now
B     E
All Day
G#   E

Verse 1

Pre-Chorus

Chorus

Bridge:
C#| E| C#| E| C#| E| B| E|
C#         E                          C#
      Anyone around can see
                  E                                C#
just how good you've been to me
                  E                                        C#
For all my friends that don't know you
                   E                 B                   E
I pray that you would save them too

Chorus
 2x net drums en bass
2x guitar, drums & bass
4x almal

GUITAR SOLO

e---------------------------------------------------------------------------------------------|
B-12-12-11-11-12-12-----12-12-11-11-12-12-----12-12-11-11-12-12-------------------------------|
G----------------------------9-8---------------------------9-8---------------------------9-8--|

e-------------------11/12\11-----|
B-12-12-11-11--------------------|
G--------------------------------|

BASS INTRO

g-----------------------------------------------------------|
d----------------------6------------------------------------|
a-------------6-7-7-----7--------6-7-----2-1----------------|
e----4-4-7-----------------7-7-------2-2--------------------|
Suggest correction
What's this?
You can suggest a correction to this tab. Community and Mods will review your correction and vote to approve or reject it.
comments
print report bad tab
3 comments total.
+1 reply
nickpdaniel 33 wrote on February 28 2012, 01:01 pm

All Ab's should be Abm as they are the 6 chord of the key which should be a minor chord. Ab (M) does not sound right.

Lead guitar tab is off a bit in the placement of B string, should be:

e--------------------------------------------------------------------------|
B-12-12-11-11-12-12-----12-12-11-11-12-12-----12-12-11-11-12-12---------|
G--------------------9-8--------------------9-8--------------------9-8----|

e-------------------11/12\11-----|
B-12-12-11-11--------------------|
G--------------------------------|

0 reply
sami.kid 38 wrote on January 17 2015, 02:35 pm

i think that the G# have to be something else but what

0 reply
sami.kid 38 wrote on January 17 2015, 02:40 pm

G#m E B F#

guest
You may want to rate the tab now too:
select rating
Please do not post tabs as comments. Select "correction" instead!