Oops, an error
Loading. Please wait.

Amor Como Fuego tab

1,425 views 15 this week
no commentswrite comment
1 2 3 4 5
2 more votes to show rating
add to favorites
×
Save as Personal and add changes to this tab that will be seen only by you. Learn more ›
×
You can save this tab as Personal to edit and correct it or add notes. All changes will be seen only by you. Learn more »
launch autoscroll
font size
0
reset
how to read this tab
guitar tuner
edit
Autoscroll
slow
fast
+/-
esc
set tempo
stop
Amor como fuego
Matt Crocker (compositor)
Album: En mi lugar

Introducción
guitarra eléctrica

E
|-----------------------7-
|----9----7----9----7h9---
|--9----9----9----9------- (2x)
|-------------------------
|-------------------------
|-------------------------
C#m
|-----------------------7-
|----9----7----9----7h9---
|--6----6----6----6------- (2x)
|-------------------------
|-------------------------
|-------------------------
B
|-----------------------7-
|----9----7----9----7h9---
|-------------------------
|--9----9----9----9-------
|-------------------------
|-------------------------
A
|-----------------------7-
|----9----7----9----7h9---
|-------------------------
|--7----7----7----7-------
|-------------------------
|-------------------------
E
|-----------------------7-
|----9----7----9----7h9---
|--9----9----9----9------- (2x)
|-------------------------
|-------------------------
|-------------------------

Verso I
           E
Anhelo un toque de Tu amor
                      C#m
Sólo un destello de Tu gloria en mí Señor
                     B
En un momento todo puedes transformar
    A                  E
Mi vida has cambiado Dios

Verso II
         E
Y no alcanzo a comprender
                       C#m
Tu amor sostiene por coMpleto hoy mi ser
                           B
Tu gracia y sangre que mi vida transformó
    A                E
Borraste mi pasado Dios


Pre-coro
                C#m
Tu amor es como fuego,
e|---------------------------------------|
B|---------------------------------------|
G|---------------------------------------|
D|---4s6--11--9--6--4-2------------------|
A|---------------------------------------|
E|---------------------------------------|

     A                E     B
que arde en mi interior
e|---------------------------------------|
B|---------------------------------------|
G|---------------------------------------|
D|---4s6--11--9--6--4-1------------------|
A|---------------------------------------|
E|---------------------------------------|

          C#m
Mi único anhelo,
e|---------------------------------------|
B|---------------------------------------|
G|---------------------------------------|
D|---4s6--11--9--6--4-2------------------|
A|---------------------------------------|
E|---------------------------------------|
     A           E
rendirte adoración
e|---------------------------------------|
B|---------------------------------------|
G|---------------------------------------|
D|---4s6--11--9--6--4-1------------------|
A|---------------------------------------|
E|---------------------------------------|

Entrando al
coro I

          B         E
Con Tu fuego lléname
                        B
Que Tu amor me atraiga
                       C#m
Al lugar donde Tú estás
          A           E
Quiero más de Ti Señor

Bien presten atención: en el coro
la guitarra eléctrica hace en las siguientes
notas un ritmo de rasgueo

    E          B         C#m         A
e|--12-|   e|-----|   e|--12-|   e|--9--|
B|--12-|   B|-----|   B|--14-|   B|--10-|
G|--9--|   G|--12-|   G|--13-|   G|--9--|
D|--9--|   D|--11-|   D|-----|   D|-----|
A|-----|   A|--9--|   A|-----|   A|-----|
E|-----|   E|-----|   E|-----|   E|-----|


Verso III

          E
Me rindo ante Ti Jesús
                             C#m
Me entrego humilde ante el mensaje de la cruz
                         B
Y me abandono en Tu presencia y amor
    A                   E
Jamás seré igual oh Dios


Pre-coro
                C#m         A               E      B
Tu amor es como fuego, que arde en mi interior
          C#m        A            E
Mi único anhelo, rendirte adoración
        B        E
Con Tu fuego lléname


Coro II
                       B
Que Tu amor me atraiga
                       C#m
Al lugar donde Tú estás
         A           E
Quiero más de Ti Señor

                       B
En la cruz hoy me rindo
                       C#m
Seguiré Tu llamado Dios
         A             E
Cristo pertenezco a Ti

Puente
al tiempo 03:27

e|---------------------------------------|
B|---------------------------------------|
G|--9------8-----4s--11----12------------|
D|---------------------------------------|
A|--7(x4)--6(x4)-2s--9(x4)-10(x4)--------|
E|---------------------------------------| (x2)

e|---------------------------------------|
B|---------------------------------------|
G|--8------6-----8------9----------------|
D|---------------------------------------|
A|--6(x4)--4(x4)-6(x4)--7(x4)------------|
E|---------------------------------------|

e|---------------------------------------|
B|---------------------------------------|
G|--6------4-----6------8-----9----------|
D|---------------------------------------|
A|--4(x4)--2(x4)-4(x4)--9(x4)-10---------|
E|---------------------------------------|

                C#m         A               E      B
Tu amor es como fuego, que arde en mi interior
e|----------------------------------------------------|
B|--------------9v----------10v-------------9v--------|
G|-------------------------------------------------8v-|
El vibrato lo puedes hacer también con la palanca
del puente sonaria mejor

          C#m        A            E  B
Mi único anhelo, rendirte adoración
e|----------------------------------------------------|
B|--------------9v----------10v-------------9v--------|
G|-------------------------------------------------8v-|

Luego
                C#m
Tu amor es como fuego,
e|---------------------------------------|
B|---------------------------------------|
G|---------------------------------------|
D|---4s6--11--9--6--4-2------------------|
A|---------------------------------------|
E|---------------------------------------|

     A                E     B
que arde en mi interior
e|---------------------------------------|
B|---------------------------------------|
G|---------------------------------------|
D|---4s6--11--9--6--4-1------------------|
A|---------------------------------------|
E|---------------------------------------|

          C#m
Mi único anhelo,
e|---------------------------------------|
B|---------------------------------------|
G|---------------------------------------|
D|---4s6--11--9--6--4-2------------------|
A|---------------------------------------|
E|---------------------------------------|
     A           E
rendirte adoración
e|---------------------------------------|
B|---------------------------------------|
G|---------------------------------------|
D|---4s6--11--9--6--4-1------------------|
A|---------------------------------------|
E|---------------------------------------|

Bueno amigos, eso es todo
disfrutenlo, Dios los Bendiga a todos
saludos desde la iglesia "Casa del Rey" en Barranquilla/Colombia
efra919@
Suggest correction
Creating personal tab
Creating personal tab
You can edit any tab online and save it as your Personal.

You can edit, replace or remove any tab part or add personal notes – all changes will be seen only by you.

Personal tabs can be accessed anytime from any device, even offline.
Learn more »
Give kudos to tab author, rate the tab!
1 2 3 4 5
comments
print report bad tab
guest
Wanna post a correction for this tab? Suggest correction