Oops, an error
Loading. Please wait.

An Introduction Bass Tab

version 1
version 1

Whole song

Interactive

4,321 views 1 this week
7 commentsread comments
1 2 3 4 5
worth learning
x 6
add to favorites
launch autoscroll
font size
0
reset
guitar tuner
Autoscroll
slow
fast
+/-
esc
set tempo
stop
Help us to improve Ultimate-Guitar.com Take our survey!
×
Author
Difficulty
novice
Hillsong United
United We Stand
Producer - Michael Guy Chislett
Duration - 1:32

There are three parts in this song. They are labeled as parts sound different. Hope you 
it. Rate it if you're a member please!

PT I
G|--------------------------------------------------------------------------|
D|--------------------------------------------------------------------------|
A|-9-9-9-9-9-9-9-9-9-9-9-9-9-9-9-9-7-7-7-7-7-7-7-7-7-7-7-7-7-7-7-7----------|
E|--------------------------------------------------------------------------|

G|--------------------------------------------------------------------------|
D|--------------------------------------------------------------------------|
A|-5-5-5-5-5-5-5-5-5-5-5-5-5-5-5-5-7-7-7-7-7-7-7-7-7-7-7-7-7-7-7-7----------|
E|--------------------------------------------------------------------------|

G|--------------------------------------------------------------------------|
D|--------------------------------------------------------------------------|
A|-9-9-9-9-9-9-9-9-9-9-9-9-9-9-9-9-7-7-7-7-7-7-7-7-7-7-7-7-7-7-7-7----------|
E|--------------------------------------------------------------------------|

G|--------------------------------------------------------------------------|
D|--------------------------------------------------------------------------|
A|-5-5-5-5-5-5-5-5-5-5-5-5-5-5-5-5-7-7-7-7-7-7-7-7-7-7-7-7-7-7-7-7----------|
E|--------------------------------------------------------------------------|

PT. II
G|--------------------------------------------------------------------------|
D|--------------------------------------------------------------------------|
A|-5-5-5-5-5-5-5-5-5-5-5-5-5-5-5-5------------------------------------------|
E|---------------------------------2-2-2-2-2-2-2-2-2-2-2-2-2-2-2-2----------|

G|--------------------------------------------------------------------------|
D|--------------------------------------------------------------------------|
A|-5-5-5-5-5-5-5-5-5-5-5-5-5-5-5-5-7-7-7-7-7-7-7-7-7-7-7-7-7-7-7-7----------|
E|--------------------------------------------------------------------------|
PT III
G|--------------------------------------------------------------------------|
D|--------------------------------------------------------------------------|
A|---------------------------------0-0-0-0-0-0-0-0-0-0-0-0-0-0-0-0----------|
E|-2-2-2-2-2-2-2-2-2-2-2-2-2-2-2-2------------------------------------------|

G|--------------------------------------------------------------------------|
D|--------------------------------------------------------------------------|
A|-5-5-5-5-5-5-5-5-5-5-5-5-5-5-5-5-0-0-0-0-0-0-0-0-0-0-0-0-0-0-0-0----------|
E|--------------------------------------------------------------------------|

G|--------------------------------------------------------------------------|
D|--------------------------------------------------------------------------|
A|-2-2-2-2-2-2-2-2-2-2-2-2-2-2-2-2-9-9-9-9-9-9-9-9-9-9-9-9-9-9-9-9----------|
E|--------------------------------------------------------------------------|

G|--------------------------------------------------------------------------|
D|--------------------------------------------------------------------------|
A|-5-5-5-5-5-5-5-5-5-5-5-5-5-5-5-5-7-7-7-7-7-7-7-7-7-7-7-7-7-7-7-7~---------|
E|--------------------------------------------------------------------------|
Suggest correction
comments
print report bad tab
7 comments total. Showing first comments.
-2 reply
Don630 10 wrote on April 26 2008, 05:43 pm

You know(who ever u r)
This tab is the worst!!!!
tab I've ever seen in ultimate Guitar
Now u
know
now don`t ever make new tabs again F$#$ Y%$

0 reply
Don630 10 wrote on April 26 2008, 05:45 pm

and youre name SUCKS OK!!!
****er!!!
Dick face!!!(T_T)

0 reply
Don630 10 wrote on April 26 2008, 05:45 pm

Bitch

guest
You may want to rate the tab now too:
select rating
Please do not post tabs as comments. Select "correction" instead!