Oops, an error
Loading. Please wait.

Break Free bass

version 2
version 2

Whole song

Interactive

4,470 views 3 this week
no commentswrite comment
1 2 3 4 5
3 more votes to show rating
add to favorites
×
Save as Personal and add changes to this tab that will be seen only by you. Learn more ›
×
You can save this tab as Personal to edit and correct it or add notes. All changes will be seen only by you. Learn more »
launch autoscroll
font size
0
reset
guitar tuner
edit
Autoscroll
slow
fast
+/-
esc
set tempo
stop
Difficulty
I got really bored with the chorus so i through in my own little thing 2 it. It sounds 
cool but play it with the singers... so yea enjoy. If u wanna email me my email
is big_dave_the_beautiful4@hotmail.com....LADIES!


Verse 1 and Pre-Chorus 1:Play F# on the E string and let it ring out then slide to F# an 
higher(just listen to the song)

Verses
G|-------------------------------------------------------------------------|
D|-------------------------------------------------------------------------|
A|--------------9-7---------9-9-7-7---5-5-5-0-5-5--5-5-5-------------------|
E|2/7\--2-2-2-2-----2-2-2--------------------------------5-5-4-4-----------|

G|-------------------------------------------------------------------------|
D|----------------------------------------------------7-7-6-6--------------|
A|--------9-7---------9-9-7-7------5-5-5-0-5-5--5-5-5----------------------|
E|2-2-2-2-----2-2-2--------------------------------------------------------|

Pre-Choruses
G|-------------------------------------------------------------------------|
D|---------------------11--------------------------------------------------|
A|------7-9----7-9-9-9----9----5-5--5-5--5-5--5-5~-------------------------|
E|2-2-2----2-2-------------------------------------------------------------|

G|-------------------------------------------------------------------------|
D|---------------------11--------------------------------------------------|
A|------7-9----7-9-9-9----9----5-5--5-5--5-5--5-5~-------------------------|
E|2-2-2----2-2-------------------------------------------------------------|


Chorus(Play twice the secong time)
G|-------------------------------------------------------------------------|
D|---------------------5-7-5---------------9-11-9--------------------------|
A|-----5-7-5-------5-7-------7-5-------9-11----------55-55-55-55-12-5------|
E|-5-7-------7-5-----------------------------------------------------------|


Drop out and let the guitar play once then jump into the next verse

Verse 3

Pre-Chorus

Chorus

Bridge: 4 times
G|-------------------------------------------------------------------------|
D|-------------------------------------------------------------------------|
A|3/7-7-7-7-7-7-7-7-9-9-9-9-9-9-9-9-5-5-5-5-5-5-5-5------------------------|
E|-------------------------------------------------------------------------|

Solo
G|-------------------------------------------------------------------------|
D|-------------------------------------------------------------------------|
A|----------9-7---------9-9-7-7---2-2-2-0-2-2--2-2-4-----------------------|
E|--2-2-2-2-----2-2-2--------------------------------5-5-4-4---------------|

G|-------------------------------------------------------------------------|
D|---------------------------------------------------7-7-6-6---------------|
A|--------9-7---------9-9-7-7-----2-2-2-0-2-2--2-2-4-----------------------|
E|2-2-2-2-----2-2-2--------------------------------------------------------|


Awesome Pre-Chorus
G|-------------------------------------------------------------------------|
D|-----------------------------11------------------------------------------|
A|----------7-9---------7-9-9-9--9-2-2-2-0-2-2--2-2-4----------------------|
E|--2-2-2-2-----2-2-2--------------------------------5-5-4-4---------------|

Chorus

Outro:Play F# with the guitar
Suggest correction
Creating personal tab
Creating personal tab
You can edit any tab online and save it as your Personal.

You can edit, replace or remove any tab part or add personal notes – all changes will be seen only by you.

Personal tabs can be accessed anytime from any device, even offline.
Learn more »
Give kudos to tab author, rate the tab!
1 2 3 4 5
comments
print report bad tab
guest
Wanna post a correction for this tab? Suggest correction