Oops, an error
Loading. Please wait.

Came To My Rescue Bass Tab

version 1
version 1

Solo

Whole song

1,434 views 1 this week
no commentswrite comment
1 2 3 4 5
2 more votes to show rating
add to favorites
launch autoscroll
font size
0
reset
guitar tuner
Autoscroll
slow
fast
+/-
esc
set tempo
stop
Help us to improve Ultimate-Guitar.com Take our survey!
×
Author
Tabbed by: crayzbananas
Came To My Rescue
(not really a solo, but bass riff during bridge)

Tuning: Standard

Bridge: (In my life, be lifted high..)

G|--------------------------------------------------------------------------|
D|--------------------------------------------------------------------------|
A|----10-12-10---------\12--------------------------------------------------|
E|--5----------12-10-5------------------------------------------------------|

G|--------------------------------------------------------------------------|
D|--------------------------------------------------------------------------|
A|----10-12-10---------------3--3-3-5-3-2-3-3-----3--3-3-5-3-2-3-3----------|
E|--5----------12-10-5-5-7-7-----------------3-3------------------3-3-------|

And then repeat both until chorus again. End bridge on F (1 on E)


| /  slide up
| \  slide down
| h  hammer-on
| p  pull-off
| ~  vibrato
| +  harmonic
| x  Mute note
===============================================================================
Suggest correction
Give kudos to tab author, rate the tab!
1 2 3 4 5
comments
print report bad tab
guest
You may want to rate the tab now too:
select rating
Wanna post a correction for this tab? Suggest correction