Oops, an error
Loading. Please wait.

Devotion Bass Tab

version 1
version 1

Whole song

Interactive

2,945 views 6 this week
no commentswrite comment
1 2 3 4 5
accurate
x 2
add to favorites
launch autoscroll
font size
0
reset
guitar tuner
Tab Pro tools
  • play this tab
  • loop segment
  • change instrument
  • show fretboard
  • metronome
Autoscroll
slow
fast
+/-
esc
set tempo
stop
Contributor
Difficulty
novice
Intro:
G|-------------------------------------------|
D|-------------------------------------------|
A|3------------5-----------7-----------------|
E|-------------------------------------------|

Verse 1:
G|-------------------------------------------|
D|-------------------------------------------|
A|3-----------------5------------------------|
E|-------------------------------------------|
  I've been running trying to be one who sees
G|-------------------------------------------|
D|-------------------------------------------|
A|7------------------------------------------|
E|-------------------------------------------|
  I've been working salvation out of my knees
G|-------------------------------------------|
D|-------------------------------------------|
A|3----------------5-------------------------|
E|-------------------------------------------|
  there is nothing better than knowing
G|-------------------------------------------|
D|-------------------------------------------|
A|7------------------------------------------|
E|-------------------------------------------|
  we are redeemed

G|-------------------------------------------|
D|-------------------------------------------|
A|3-------------5----------------------------|
E|-------------------------------------------|
  I'm believing trusting in creative hands
G|-------------------------------------------|
D|-------------------------------------------|
A|7------------------------------------------|
E|-------------------------------------------|
  I am praying for our world to bow to Your plan
G|-------------------------------------------|
D|-------------------------------------------|
A|3------------------------5-----------------|
E|-------------------------------------------|
  and this one thought is unmistakeable
G|--------------------------------------------|
D|--------------------------------------------|
A|7--------------------------------------5--7-|
E|--------------------------------------------|
  I take up my cross and follow You lord


  Chorus:
G|-------------------------------------------|
D|-------------------------------------------|
A|-------------------------------------------|
E|3------------------------------------------|
  when You stand the tall trees and mountains bow
G|-------------------------------------------|
D|-------------------------------------------|
A|7------------------------------------------|
E|-------------------------------------------|
  when You speak the fiercest of oceans is still
G|-------------------------------------------|
D|-------------------------------------------|
A|3---------5--------------------------------|
E|-------------------------------------------|
  and I see sinners seek devotion
G|-------------------------------------------|
D|-------------------------------------------|
A|7------------------------------------------|
E|-------------------------------------------|
  lost become chosen
G|-------------------------------------------|
D|-------------------------------------------|
A|---------------------3---------------------|
E|-------------------------------------------|
  and I fall to my knees


Then Intro:

G|-------------------------------------------|
D|-------------------------------------------|
A|3x3x3x3--5x5x5x5--7x7x7x7x7x7x7x7x7x7------|
E|-------------------------------------------|


  Verse 2:
G|-------------------------------------------|
D|-------------------------------------------|
A|3x-3x-3x-3x------5x--5x--5x--5x------------|
E|-------------------------------------------|
  I'm forgiven by a Savior who did not deserve death
G|-------------------------------------------|
D|-------------------------------------------|
A|7x--7x--7x--7x--7x--7x--7x--7x--7x---------|
E|-------------------------------------------|
  He was blameless, when I was lost in shamefulness
G|-------------------------------------------|
D|-------------------------------------------|
A|3x-3x-3x-3x------5x--5x--5x--5x------------|
E|-------------------------------------------|
  I'm delivered but it doesn't seem right
G|-------------------------------------------|
D|-------------------------------------------|
A|7x--7x--7x--7x--7x--7x--7x--7x--7x---------|
E|-------------------------------------------|
  unless I keep my eyes focused on the Savior who gave His life

G|-------------------------------------------|
D|-------------------------------------------|
A|3x-3x-3x---------5x--5x--5x----------------|
E|-------------------------------------------|
  in the middle of a world that denies it believes
G|-------------------------------------------|
D|-------------------------------------------|
A|7x--7x--7x--7x--7x--7x--7x--7x-------------|
E|-------------------------------------------|
  it is breaking apart at the very seam
G|-------------------------------------------|
D|-------------------------------------------|
A|3x-3x-3x---------5x--5x--5x----------------|
E|-------------------------------------------|
  in this one thing to be alive for
G|-------------------------------------------|
D|-------------------------------------------|
A|7x--7x--7x--7x--7x--7x--7x--7x--7x---------|
E|-------------------------------------------|
  and it's to take up my cross and follow You Lord

  Then
G|-------------------------------------------|
D|-------------------------------------------|
A|7x--7x--7x--7x--7x--7x--7x--7x--7x---------|
E|-------------------------------------------|


  Bridge:
G|-------------------------------------------|
D|-------------------------------------------|
A|-------------------------------------------|
E|3------------------------------------------|
  I will take up my cross and
G|-------------------------------------------|
D|-------------------------------------------|
A|3------------------------------------------|
E|-------------------------------------------|
  follow Lord where You lead me
G|-------------------------------------------|
D|-------------------------------------------|
A|7------------------------------------------|
E|-------------------------------------------|
  I will take up my cross
G|-------------------------------------------|
D|-------------------------------------------|
A|5-------------------------3----------------|
E|-------------------------------------------|
  and follow wherever You go

G|-------------------------------------------|
D|-------------------------------------------|
A|-------------------------------------------|
E|3x--3x--3x--3x--3x--3x--3x--3x-------------|
  I will take up my cross and
G|-------------------------------------------|
D|-------------------------------------------|
A|3x--3x--3x--3x--3x--3x--3x--3x-------------|
E|-------------------------------------------|
  follow Lord where You lead me
G|-------------------------------------------|
D|-------------------------------------------|
A|7x--7x--7x--7x--7x--7x--7x--7x-------------|
E|-------------------------------------------|
  I will take up my cross
G|--------------------------------------------|
D|--------------------------------------------|
A|555555555-------------------------333333333-|
E|--------------------------------------------|
  and follow wherever You go

  Chorus:
G|-------------------------------------------|
D|-------------------------------------------|
A|-------------------------------------------|
E|33333333333333333333333333333--------------|
  when You stand the tall trees and mountains bow
G|-------------------------------------------|
D|-------------------------------------------|
A|77777777777777777777777777777--------------|
E|-------------------------------------------|
  when You speak the fiercest of oceans is still
G|-------------------------------------------|
D|-------------------------------------------|
A|33333333--5555555555555555555555-----------|
E|-------------------------------------------|
  and I see sinners seek devotion
G|-------------------------------------------|
D|-------------------------------------------|
A|7777777777777777777------------------------|
E|-------------------------------------------|
  lost become chosen
G|-------------------------------------------|
D|-------------------------------------------|
A|33333333333333333--------------------------|
E|-------------------------------------------|
  and I fall to my knees(X2)
The Outro


G|-------------------------------------------|
D|-------------------------------------------|
A|3-3-3-3-5-5-5-5-7-7-7-7-7-7-7-7------------|
E|-------------------------------------------|

X = Pause
comments
We did not receive enough feedback on this tab! Please rate:
print report bad tab
1 2 3 4 5
I want to post or [tab]
guest
You may want to rate the tab now too:
select rating
Please do not post tabs as comments. Select "correction" instead!