Oops, an error
Loading. Please wait.

En Tu Luz bass

81 views 1 this week
no commentswrite comment
1 2 3 4 5
3 more votes to show rating
add to favorites
×
Save as Personal and add changes to this tab that will be seen only by you. Learn more ›
×
You can save this tab as Personal to edit and correct it or add notes. All changes will be seen only by you. Learn more »
launch autoscroll
font size
0
reset
guitar tuner
edit
Autoscroll
slow
fast
+/-
esc
set tempo
stop
ESTA ROLA ESTA MUI CHIDA
SOLO CHEKA LOS CAMBIOS A TIEMPO
Y SE T HARA FACIL
ASI K AHI LES VA

INTRO:
E:-------------7(X16)----5(X16)--------------7(X8)-----------------
A:---7(X16)--------------------------4(X8)-------------------7-----
D:-----------------------------------------------------------------
G:-----------------------------------------------------------------
VERSO
TAN CONSUMIDOS POR TU AMOR
 QUE HEMOS PERDIDO EL SENTIDO
DE NUESTRO ALREDEDOR

Aki va lo siguiente:
E:----------------------6---6---6---6--------
A:---7/4---4---4---4--------------------7----
D:-------------------------------------------
G:-------------------------------------------
YA NADA NOS PUEDE DESLUMBRAR
NADA EN ESTE MUNDO SE TE PUEDE COMPARAR
JESUS
Y SE REPITE OTRA VEZ LO DE ARRIBA:
E:----------------------6---6---6---6--------
A:---7/4---4---4---4--------------------7----
D:-------------------------------------------
G:-------------------------------------------

NADIE COMO TU??
E:---7----9-----7----5----7----9----7----5555555555---------
A:----------------------------------------------------------
D:----------------------------------------------------------
G:----------------------------------------------------------

CORO:
AKI SE REPITE EL INTRO ASI:
E:-------------7(X16)----5(X16)--------------7(X8)-----------------
A:---7(X16)--------------------------4(X8)-------------------7-----
D:-----------------------------------------------------------------
G:-----------------------------------------------------------------

Y SE REPITE TODA LA INTRO, LA ESTROFA Y EL CORO
Y EN EL PUENTE VA ESTO
        EN TU LUZ VEMOS LA LUZ
E:-----------------------------7
A:------7-----------------------
        EN TU LUZ VEMOS LA LUZ
E:----------------------------5
         EN TU LUZ VEMOS LA  LUUUUZ
E:---------------------------------7
A:--------------------------4-------

Y DESPUES SE HACE LO MISMO DEL CORO
Y TERMINA ASI
E:-------------7(X16)----5(X16)
A:--7(X16)---------------------
D:-----------------------------
G:-----------------------------

E:----------------------------------------
A:-9---9---7---7---11---11---6---6---6---7-


BUENO ESPEREO Y LES GUSTE
LA NETA ESTA FACIL
Y COMO SIEMPRE SALUDOS A ESCUELA DE MUSICA JC
A TODOS
AKI EN SAN MARTIN TEXMELUCAN PUEBLA
LA GLORIA ES DE DIOS  OBLIGAO¡¡¡¡¡¡

Y LAS VIVIS CLAN Y TODO EL EKIPO DE ALABANZA
AKI EN SANTA MARIA
GOOD BLESS A TODOS

            
            
Suggest correction
Creating personal tab
Creating personal tab
You can edit any tab online and save it as your Personal.

You can edit, replace or remove any tab part or add personal notes – all changes will be seen only by you.

Personal tabs can be accessed anytime from any device, even offline.
Learn more »
Give kudos to tab author, rate the tab!
1 2 3 4 5
comments
print report bad tab
guest
Wanna post a correction for this tab? Suggest correction