Oops, an error
Loading. Please wait.

For Who You Are bass

3,391 views 1 this week
no commentswrite comment
1 2 3 4 5
3 more votes to show rating
add to favorites
×
Save as Personal and add changes to this tab that will be seen only by you. Learn more ›
×
You can save this tab as Personal to edit and correct it or add notes. All changes will be seen only by you. Learn more »
launch autoscroll
font size
0
reset
guitar tuner
edit
Autoscroll
slow
fast
+/-
esc
set tempo
stop
-------------------------------------------------------------------------------
			 For Who You Are - Hillsong United
-------------------------------------------------------------------------------

Tabbed By :  kamakazi20012
e-mail: kamakazi20012@live.com

Tuning:  EADG

Comments:  One of Hillsong United's easier bass techniques.  I had to learn this one by 
for my church performance and this is how I play it.  A fun song

to play.  This tab is using a 16-beat measure (1 & & & 2 & & & 3 & & & 4 & & &) so hope 
helps.  I included a beat count in this tab to help you with the

timing.

INTRO
  1   2   3   4    1   2   3   4
G|----------------|----------------|
D|----------------|----------------|
A|----------------|----------------|
E|----------------|----------------|

VERSE (Standing here...)
  1   2   3   4    1   2   3   4
G|----------------|----------------|
D|----------------|----------------|
A|----------------|----------------|
E|----------------|----------------|

PRE CHORUS (Holy, Righteous...)
  1   2   3   4    1   2   3   4
G|----------------|----------------|
D|----------------|----------------|
A|----------------|----------------|
E|----------------|----------------|

CHORUS (I will worship you...)
  1   2   3   4    1   2   3   4
G|----------------|----------------|
D|----------------|----------------|
A|----------------|----------------|
E|----------------|----------------|
(repeat INTRO and VERSE above, skip to PRE CHORUS below)

PRE CHORUS (Holy, Righteous...)
  1   2   3   4    1   2   3   4    1   2   3   4    1   2   3   4
G|----------------|----------------|----------------|----------------|
D|6---------------|4---------------|2---------------|4---------------|
A|----------------|----------------|----------------|----------------|
E|----------------|----------------|----------------|----------------|

  1   2   3   4    1   2   3   4    1   2   3   4    1   2   3   4
G|----------------|----------------|----------------|----------------|
D|6---------------|4---------------|2-2-2-2-2-2-2-2-|2-2-2-2-2-2-2-2-|
A|----------------|----------------|----------------|----------------|
E|----------------|----------------|----------------|----------------|


CHORUS (I will worship you...)
  1   2   3   4    1   2   3   4    1   2   3   4    1   2   3   4
G|----------------|----------------|----------------|----------------|
D|----------------|----------------|----------------|----------------|
A|2--2--2--22-2---|2--2--2--22-2---|----------------|----------------|
E|----------------|----------------|4--4--4--44-4---|4--4--4--44-4---|

  1   2   3   4    1   2   3   4    1   2   3   4    1   2   3   4
G|----------------|----------------|----------------|----------------|
D|----------------|----------------|----------------|----------------|
A|----------------|----------------|----------------|----------------|
E|2--2--2--22-2---|2--2--2--22-2---|0--0--0--00-0---|0--0--0--00-0---|
(repeat)

GUITAR SOLO
  1   2   3   4    1   2   3   4    1   2   3   4    1   2   3   4
G|----------------|----------------|----------------|----------------|
D|----------------|----------------|6--6--6--66-6---|6--6--6--66-6---|
A|2--2--2--22-2---|2--2--2--22-2---|----------------|----------------|
E|----------------|----------------|----------------|----------------|

  1   2   3   4    1   2   3   4    1   2   3   4    1   2   3   4
G|----------------|----------------|----------------|----------------|
D|4--4--4--44-4---|4--4--4--44-4---|2--2--2--22-2---|2--2--2--22-2---|
A|----------------|----------------|----------------|----------------|
E|----------------|----------------|----------------|----------------|

BRIDGE (My soul secure...)
  1   2   3   4    1   2   3   4    1   2   3   4    1   2   3   4
G|----------------|----------------|----------------|----------------|
D|----------------|----------------|6---------------|----------------|
A|2---------------|---------------/|----------------|----------------|
E|----------------|----------------|----------------|----------------|

  1   2   3   4    1   2   3   4    1   2   3   4    1   2   3   4
G|----------------|----------------|----------------|----------------|
D|4---------------|----------------|2---------------|----------------|
A|----------------|----------------|----------------|----------------|
E|----------------|----------------|----------------|----------------|

  1   2   3   4    1   2   3   4    1   2   3   4    1   2   3   4
G|----------------|----------------|----------------|----------------|
D|----------------|----------------|6-----6---------|6-----6---------|
A|2-----2---------|2-----2---------|----------------|----------------|
E|----------------|----------------|----------------|----------------|

  1   2   3   4    1   2   3   4    1   2   3   4    1   2   3   4
G|----------------|----------------|----------------|----------------|
D|4-----4---------|4-----4---------|2-----2---------|2------2--------|
A|----------------|----------------|----------------|----------------|
E|----------------|----------------|----------------|----------------|

  1   2   3   4    1   2   3   4    1   2   3   4    1   2   3   4
G|----------------|----------------|----------------|----------------|
D|----------------|----------------|6-----6---------|6-----6---------|
A|2-----2---------|2-----2---------|----------------|----------------|
E|----------------|----------------|----------------|----------------|

  1   2   3   4    1   2   3   4    1   2   3   4    1   2   3   4
G|----------------|----------------|----------------|----------------|
D|4-----4---------|4-----4--------\|----------------|----------------|
A|----------------|----------------|----------------|----------------|
E|----------------|----------------|0-0-0-0-0-0-0-0-|0-0-0-0-0-0-0-0-|
(repeat CHORUS)

CHORUS OUT
  1   2   3   4    1   2   3   4    1   2   3   4    1   2   3   4
G|----------------|----------------|----------------|----------------|
D|----------------|----------------|----------------|----------------|
A|2--2--2--22-2---|2--2--2--22-2---|----------------|----------------|
E|----------------|----------------|4--4--4--44-4---|4--4--4--44-4---|

  1   2   3   4    1   2   3   4    1   2   3   4    1   2   3   4
G|----------------|----------------|----------------|----------------|
D|----------------|----------------|----------------|----------------|
A|----------------|----------------|----------------|----------------|
E|2--2--2--22-2---|2--2--2--22-2---|0--0--0--00-0---|0--0--0--00-0---|

  1   2   3   4    1   2   3   4
G|----------------|----------------|
D|----------------|----------------|
A|2~~~~~~~~~~~~~~~|~~~~~~~~~~~~~~~~|
E|----------------|----------------|


| /  slide up
| \  slide down
| h  hammer-on
| p  pull-off
| ~  vibrato
| +  harmonic
| x  Mute note
===============================================================================

            
            
Suggest correction
Creating personal tab
Creating personal tab
You can edit any tab online and save it as your Personal.

You can edit, replace or remove any tab part or add personal notes – all changes will be seen only by you.

Personal tabs can be accessed anytime from any device, even offline.
Learn more »
Give kudos to tab author, rate the tab!
1 2 3 4 5
comments
print report bad tab
guest
You may want to rate the tab now too:
select rating
Wanna post a correction for this tab? Suggest correction