Oops, an error
Loading. Please wait.

From The Inside Out Tab

version 1
version 1

Intro

Whole song

Interactive

104,780 views 18 this week
5 commentsread comments
1 2 3 4 5
x 23
add to favorites
launch autoscroll
font size
0
reset
how to read this tab
guitar tuner
Autoscroll
slow
fast
+/-
esc
set tempo
stop
Help us to improve Ultimate-Guitar.com Take our survey!
×
Author
HILLSONG UNITED - FROM THE INSIDE OUT INTRO

e|---------------12-------12---------------|
B|--------13-----------13---13-15-12-------|
G|--12-14----12-----12---------------12----|
D|-----------------------------------------|
A|-----------------------------------------|
E|-----------------------------------------|
Suggest correction
comments
print report bad tab
5 comments total. Showing first comments.
0 reply
Afterwords44 16 Jun 08, 2008 09:32 PM

good job. awesome song, perfect tab

0 reply
ijohnaaa 10 Jul 05, 2008 09:14 PM

e|-----------------12------12----------------|
B|--------13------------13---13---15--12-----|
G|--12-14----12-14----12-----------------12--|
D|-------------------------------------------|
A|-------------------------------------------|
E|-------------------------------------------|

0 reply
ijohnaaa 10 Jul 05, 2008 09:15 PM

you missed one note there

guest
You may want to rate the tab now too:
select rating
Wanna post a correction for this tab? Suggest correction