Oops, an error
Loading. Please wait.

From The Inside Out Tab

version 1
version 1

Intro

Solo

Whole song

Interactive

185,239 views 237 this week
6 commentsread comments
1 2 3 4 5
excellent!
x 30
add to favorites
launch autoscroll
font size
0
reset
how to read this tab
guitar tuner
Tab Pro tools
  • play this tab
  • loop segment
  • change instrument
  • show fretboard
  • metronome
×
Best way to learn
"From The Inside Out"
Autoscroll
slow
fast
+/-
esc
set tempo
stop
Difficulty
novice
(1) Artist: Hillsong United
(2) Song:From the inside out
(3) Album:United we stand
(4) Tabbed by technofreak15@hotmail.com
(5) Key: C

Standard Tuning: (e)(b)(g)(d)(a)(e)

Chords:

F            C              G             Am  

e---------|   e---------|    e----3-----|   e----------|
b---1-----|   b----1----|    b----3-----|   b----1-----|
g---2-----|   g----0----|    g----0-----|   g----2-----|
d---3-----|   d----2----|    d----0-----|   d----2-----|
a---------|   a----3----|    a----2-----|   a----------|
e---------|   e---------|    e----3-----|   e----------|


((Acoustic Guitar))

Intro:
F  C  G (3x)
F  C


Verse 1:
G          F
A thousand times I’ve failed
             C          G
Still Your mercy remains
             F
And should I stumble again
          C          G
I’m caught in Your grace
     Am
Everlasting
       F                   C          G
Your light will shine when all else fades
        Am
Never ending
     F             C        G  F  C  G  F  C
Your glory goes beyond all fame


Verse 2:
G           F
Your will above all else
      C
My purpose remains
G          F
The art of losing myself
       C          G
In bringing You praise
     Am
Everlasting
       F                   C          G
Your light will shine when all else fades
      Am
Never ending
     F             C        G
Your glory goes beyond all fame


Chorus 1:
F                      C
In my heart and my soul
                       Am
Lord I give You control
                    G
Consume me from the inside out
    F                      Am
Lord let justice and praise
                 G
Become my embrace
                     Dm
To love You from the inside out (repeat)


Chorus 2:
     Am
Everlasting
       F                   C          G
Your light will shine when all else fades
      Am
Never ending
     F             C        G
Your glory goes beyond all fame
           C           F
And the cry of my heart
           G      Am
Is to bring You praise
          F      G
From the inside out
            F      G
Lord my soul cries out


Other:
F  C  Am  G  F  Am  G  Dm


Coda:
F      G        Am
cries out. Everlasting
       F                   C          G
Your light will shine when all else fades
      Am
Never ending
     F             C        G
Your glory goes beyond all fame
           C           F
And the cry of my heart
           G      Am
Is to bring You praise
          F      G
From the inside out
            F      G
Lord my soul cries out
          F      G
From the inside out
             F       G       F
Lord, my soul cries out, Lord

____________________________________________________________________________

((Electric guitar))

h=hammer on
/=slide

Intro:
e----------------12---------12------------------------------|
b---------13-------------13----12-13h15-12------------------|
g--12h14------14------12-------------------12---------------|
d-----------------------------------------------------------|
a-----------------------------------------------------------|
e-----------------------------------------------------------|


Solo:
e---------------12-----13------12-------|
b-13-----13-----12-x8--12--x4--12--x4---|
g-14-x8--12-x8--------------------------|
d---------------------------------------|
a---------------------------------------|
e---------------------------------------|

e---------------------------------------------------------|
b-13--12--10--12-------13--12--10--10--12-----------------|
g-----------------12-----------------------10-------------|
d---------------------------------------------------------|
a---------------------------------------------------------|
e---------------------------------------------------------|

e-------------------------|
b------------------10-----|
g--9--10--9--7--9---------|
d-------------------------|
a-------------------------|
e-------------------------|

e-------------------------12------------| x2
b--13--12--10--12--13--x1---12-x8-------|
g---------------------------------------|
d---------------------------------------|
a---------------------------------------|
e---------------------------------------|

e------17------17------17------17------17-------(19)---|
b--15------15------15------15------15------(17)--------|
g------------------------------------------------------|
d------------------------------------------------------|
a------------------------------------------------------|
e------------------------------------------------------|

Any guestions just email me or talk to me on msn: technofreak15@hotmail.com
comments
print report bad tab
6 comments total. Showing first comments.
0 reply
Cgoz wrote on September 24 2008, 12:32 pm

thank you for putting this up here. this is exactly what i needed. God Bless

0 reply
zeprider25 wrote on December 4 2008, 04:44 am

e-------------------------|
b------------------10-----|
g--9--10--9--7--9---------|
d-------------------------|
a-------------------------|
e-------------------------|

e-------------------------12------------| x2
b--13--12--10--12--13--x1---12-x8-------|
g---------------------------------------|
d---------------------------------------|
a---------------------------------------|
e---------------------------------------|

those two dont seem 100% correct but I cant figure it out either. Good tabs either way!

0 reply
alexstrumsred wrote on August 26 2009, 07:11 pm

this tab is perfect. it's great for someone to actually take interest in tabbing a song for a good cause.

I want to post or [tab]
guest
You may want to rate the tab now too:
select rating
Please do not post tabs as comments. Select "correction" instead!