Oops, an error
Loading. Please wait.

From The Inside Out Tab

version 1
version 1

Whole song

Interactive

191,590 views 81 this week
6 commentsread comments
1 2 3 4 5
x 31
add to favorites
launch autoscroll
font size
0
reset
how to read this tab
guitar tuner
Autoscroll
slow
fast
+/-
esc
set tempo
stop
Help us to improve Ultimate-Guitar.com Take our survey!
×
Difficulty
novice
(Acoustic Guitar)

[Intro]

F  C  G (3x)
F  C


[Verse 1]

G          F
A thousand times I’ve failed
             C          G
Still Your mercy remains
             F
And should I stumble again
          C          G
I’m caught in Your grace
     Am
Everlasting
       F                   C          G
Your light will shine when all else fades
        Am
Never ending
     F             C        G  F  C  G  F  C
Your glory goes beyond all fame


[Verse 2]

G           F
Your will above all else
      C
My purpose remains
G          F
The art of losing myself
       C          G
In bringing You praise
     Am
Everlasting
       F                   C          G
Your light will shine when all else fades
      Am
Never ending
     F             C        G
Your glory goes beyond all fame


[Chorus 1]

F                      C
In my heart and my soul
                       Am
Lord I give You control
                    G
Consume me from the inside out
    F                      Am
Lord let justice and praise
                 G
Become my embrace
                     Dm
To love You from the inside out (repeat)


[Chorus 2]

     Am
Everlasting
       F                   C          G
Your light will shine when all else fades
      Am
Never ending
     F             C        G
Your glory goes beyond all fame
           C           F
And the cry of my heart
           G      Am
Is to bring You praise
          F      G
From the inside out
            F      G
Lord my soul cries out


[Interlude]

F  C  Am  G  F  Am  G  Dm


[Outro]

F      G        Am
cries out. Everlasting
       F                   C          G
Your light will shine when all else fades
      Am
Never ending
     F             C        G
Your glory goes beyond all fame
           C           F
And the cry of my heart
           G      Am
Is to bring You praise
          F      G
From the inside out
            F      G
Lord my soul cries out
          F      G
From the inside out
             F       G       F
Lord, my soul cries out, Lord



(Electric guitar)


[Intro]

e|----------------12---------12------------------------------|
B|---------13-------------13----12-13h15-12------------------|
G|--12h14------14------12-------------------12---------------|
D|-----------------------------------------------------------|
A|-----------------------------------------------------------|
E|-----------------------------------------------------------|


[Solo]

e|---------------12-----13------12-------|
B|-13-----13-----12-x8--12--x4--12--x4---|
G|-14-x8--12-x8--------------------------|
D|---------------------------------------|
A|---------------------------------------|
E|---------------------------------------|

e|---------------------------------------------------------|
B|-13--12--10--12-------13--12--10--10--12-----------------|
G|-----------------12-----------------------10-------------|
D|---------------------------------------------------------|
A|---------------------------------------------------------|
E|---------------------------------------------------------|

e|-------------------------|
B|------------------10-----|
G|--9--10--9--7--9---------|
D|-------------------------|
A|-------------------------|
E|-------------------------|

e|-------------------------12------------| x2
B|--13--12--10--12--13--x1---12-x8-------|
G|---------------------------------------|
D|---------------------------------------|
A|---------------------------------------|
E|---------------------------------------|

e|------17------17------17------17------17-------(19)---|
B|--15------15------15------15------15------(17)--------|
G|------------------------------------------------------|
D|------------------------------------------------------|
A|------------------------------------------------------|
E|------------------------------------------------------|




Chords:

F              C               G               Am  
e|---------|   e|---------|    e|----3-----|   e|----------|
B|---1-----|   B|----1----|    B|----3-----|   B|----1-----|
G|---2-----|   G|----0----|    G|----0-----|   G|----2-----|
D|---3-----|   D|----2----|    D|----0-----|   D|----2-----|
A|---------|   A|----3----|    A|----2-----|   A|----------|
E|---------|   E|---------|    E|----3-----|   E|----------|


************************************

| x    Dead note
| (n)  Ghost note
| h    Hammer-on 

************************************
Suggest correction
comments
print report bad tab
6 comments total. Showing first comments.
0 reply
Cgoz 31 Sep 24, 2008 12:32 PM

thank you for putting this up here. this is exactly what i needed. God Bless

0 reply
zeprider25 41 Dec 04, 2008 04:44 AM

e-------------------------|
b------------------10-----|
g--9--10--9--7--9---------|
d-------------------------|
a-------------------------|
e-------------------------|

e-------------------------12------------| x2
b--13--12--10--12--13--x1---12-x8-------|
g---------------------------------------|
d---------------------------------------|
a---------------------------------------|
e---------------------------------------|

those two dont seem 100% correct but I cant figure it out either. Good tabs either way!

0 reply
alexstrumsred 10 Aug 26, 2009 07:11 PM

this tab is perfect. it's great for someone to actually take interest in tabbing a song for a good cause.

guest
You may want to rate the tab now too:
select rating
Wanna post a correction for this tab? Suggest correction