Oops, an error
Loading. Please wait.

From The Inside Out Tab

version 4
version 4

Whole song

Interactive

8,427 views 3 this week
no commentswrite comment
1 2 3 4 5
please rate
add to favorites
launch autoscroll
font size
0
reset
how to read this tab
guitar tuner
Autoscroll
slow
fast
+/-
esc
set tempo
stop
Help us to improve Ultimate-Guitar.com Take our survey!
×
Author
Hillsong-from the inside out
Tabbed by:reneetony29
Email:renetony29@yahoo.com

Tuning:EADGBe


Intro
e|----------------12-------12----10---|
B|-------13--------------13--13---12--|
G|-12h14----12h14------12----------12-|
D|------------------------------------|
A|------------------------------------|
E|------------------------------------|


Verse
e|-------0-------|-------------0--|--------------------|
B|---------------|-------1--------|---3----------------|
G|----0-----0---|-----------------|------4-------------|       X2
D|-3------------|---2-------------|---------5----------|
A|--------------|-----------------|--------------------|
E|--------------|-----------------|--------------------|

e|-----------------------------------------------------|
B|--------5----------6----------5----------3-----------|
G|-----5---------5----------5--------4h5---------------|
D|---7-------7----------5--------5---------------------|    x2
A|-----------------------------------------------------|
E|-----------------------------------------------------|


Pre Chorus
Pluck/Strum
F9 C Am7 G
F9 C Am7 Dm


Chorus
Strum
Am F C G
C F G Am
F G F G


Instrumental

Strum
e|-----------------12--13--12----------------------------------|
B|-10---8----10----13--13--13----------------------------------|
G|-10--10----10------------------------------------------------|
D|-------------------------------------------------------------|
A|-------------------------------------------------------------|
E|-------------------------------------------------------------|

e|-------------------------------------------------------------|
B|--13p10--12--10h12-----13p12--10--10h12----------------------|
G|-------------------12--------------------10------------------|
D|-------------------------------------------------------------|
A|-------------------------------------------------------------|
E|-------------------------------------------------------------|

slight bend on the 9
e|--------------------------8p5p0------------------------------------|
B|-----10--------10--------------------------------------------------|
G|--9------9s7-------7-----------------------------------------------|
D|----------------------9b-------------------------------------------|
A|-------------------------------------------------------------------|
E|-------------------------------------------------------------------|

strum
e|--12--10--12--15----------------------------------|
B|--13--13--13--17----------------------------------|
G|--------------------------------------------------|
D|--------------------------------------------------|            x2
A|--------------------------------------------------|
E|--------------------------------------------------|

e|--------17------17------17----17----------19----------------------------|
B|-17p15------15------15-----15-----15s17---------------------------------|
G|------------------------------------------------------------------------|
D|------------------------------------------------------------------------|
A|------------------------------------------------------------------------|
E|------------------------------------------------------------------------|
Suggest correction
Give kudos to tab author, rate the tab!
1 2 3 4 5
comments
print report bad tab
guest
You may want to rate the tab now too:
select rating
Wanna post a correction for this tab? Suggest correction