Oops, an error
Loading. Please wait.

From The Inside Out Tab

version 5
version 5

Intro

Solo

Whole song

Interactive

1,212 views 1 this week
no commentswrite comment
1 2 3 4 5
accurate
x 1
add to favorites
launch autoscroll
font size
0
reset
how to read this tab
guitar tuner
Tab Pro tools
  • play this tab
  • loop segment
  • change instrument
  • show fretboard
  • metronome
×
Best way to learn
"From The Inside Out"
Autoscroll
slow
fast
+/-
esc
set tempo
stop
Contributor
Title: From The Inside Out
Artist: Joel Houston
Tabbed by: Mark Larry S. Saquing
Key: C

Intro:
Guitar 1: F  C  G (4x)
Guitar 2:(4x)

   F             C        G
e|------8----12----8-12-8-10-------|
B|-8h10---10-----8-----------12-8--|
G|---------------------------------|
D|---------------------------------|
A|---------------------------------|
E|---------------------------------|



Verse 1:
G          F
A thousand times I’ve failed
             C          G
Still Your mercy remains
             F
And should I stumble again
          C          G
I’m caught in Your grace
     Am
Everlasting
       F                   C          G
Your light will shine when all else fades
        Am
Never ending
     F             C        G  F  C  G  F  C
Your glory goes beyond all fame

Guitar 1: F  C  G (2x)
Guitar 2:(2x)

   F             C        G
e|------8----12----8-12-8-10-------|
B|-8h10---10-----8-----------12-8--|
G|---------------------------------|
D|---------------------------------|
A|---------------------------------|
E|---------------------------------|

Verse 2:
G           F
Your will above all else
      C
My purpose remains
G          F
The art of losing myself
       C          G
In bringing You praise
     Am
Everlasting
       F                   C          G
Your light will shine when all else fades
      Am
Never ending
     F             C        G
Your glory goes beyond all fame


Chorus 1:
F                      C
In my heart and my soul
                       Am
Lord I give You control
                    G
Consume me from the inside out
    F                      Am
Lord let justice and praise
                 G
Become my embrace
                     Dm
To love You from the inside out 

Guitar 1: F  C  G (2x)
Guitar 2:(2x)

   F             C        G
e|------8----12----8-12-8-10-------|
B|-8h10---10-----8-----------12-8--|
G|---------------------------------|
D|---------------------------------|
A|---------------------------------|
E|---------------------------------|

Verse 2:
G           F
Your will above all else
      C
My purpose remains
G          F
The art of losing myself
       C          G
In bringing You praise
     Am
Everlasting
       F                   C          G
Your light will shine when all else fades
      Am
Never ending
     F             C        G
Your glory goes beyond all fame


Chorus 1:
F                      C
In my heart and my soul
                       Am
Lord I give You control
                    G
Consume me from the inside out
    F                      Am
Lord let justice and praise
                 G
Become my embrace
                     Dm
To love You from the inside out (repeat)



Chorus 2:
     Am
Everlasting
       F                   C          G
Your light will shine when all else fades
      Am
Never ending
     F             C        G
Your glory goes beyond all fame
           C           F
And the cry of my heart
           G      Am
Is to bring You praise
          F      G
From the inside out
            F      G
Lord my soul cries out


Adlib:

Guitar 1: F  C  Am  G  F  Am  G  Dm

Guitar 2:

   F                    C
e|---------------------10/12-12-12-12-12/13-12----|
B|-10-10-10-10-8-8-10-----------------------------|
G|---------------------------------------------------------|
D|---------------------------------------------------------|
A|---------------------------------------------------------|
E|---------------------------------------------------------|
   Am                           G
e|-------------------------------------|
B|-13-12-10h12----12h13----------------|
G|-------------12------14-14/16-10-9-7-|
D|-------------------------------------|
A|-------------------------------------|
E|-------------------------------------|

   F                     Am
e|----------151515151515----------151515151515-|
B|-13-12-13--------------13-12-13--------------|
G|---------------------------------------------|
D|---------------------------------------------|
A|---------------------------------------------|
E|---------------------------------------------|
   G                             Dm
e|-------17----17----17----17----12-|
B|-15-15----15----15----15----15----|
G|----------------------------------|
D|----------------------------------|
A|----------------------------------|
E|----------------------------------|



Chorus 1:
F                      C
In my heart and my soul
                       Am
Lord I give You control
                    G
Consume me from the inside out
    F                      Am
Lord let justice and praise
                 G
Become my embrace
                     Dm
To love You from the inside out (repeat)



Chorus 2:
     Am
Everlasting
       F                   C          G
Your light will shine when all else fades
      Am
Never ending
     F             C        G
Your glory goes beyond all fame
           C           F
And the cry of my heart
           G      Am
Is to bring You praise
          F      G
From the inside out
            F      G
Lord my soul cries out

Chorus 2:
     Am
Everlasting
       F                   C          G
Your light will shine when all else fades
      Am
Never ending
     F             C        G
Your glory goes beyond all fame
           C           F
And the cry of my heart
           G      Am
Is to bring You praise
          F      G
From the inside out
            F      G
Lord my soul cries out

          F      G
From the inside out
            F      G
Lord my soul cries out

Ending: 
Guitar 1: F G(7x) C
Guitar 2:
(7x)
   F        G
e|-------------------|
B|----------12h13-10-|
G|-10h12-9-----------|
D|-------------------|
A|-------------------|
E|-------------------|

   C
e|------|
B|-8-10-|
G|------|
D|------|
A|------|
E|------|

I hope you enjoy!!!
comments
We did not receive enough feedback on this tab! Please rate:
print report bad tab
1 2 3 4 5
I want to post or [tab]
guest
You may want to rate the tab now too:
select rating
Please do not post tabs as comments. Select "correction" instead!