Oops, an error
Loading. Please wait.

Hosanna Tab

version 1
version 1
237,108 views 198 this week
9 commentsread comments
1 2 3 4 5
excellent!
x 43
add to favorites
launch autoscroll
font size
0
reset
how to read this tab
guitar tuner
Tab Pro tools
  • play this tab
  • loop segment
  • change instrument
  • show fretboard
  • metronome
×
Best way to learn
"Hosanna"
Autoscroll
slow
fast
+/-
esc
set tempo
stop
Contributor
Difficulty
novice
INTRO:
E|-----4-------4------------------|
B|---5-----5h7---------4-------4--|
G|-6-----6-----------4-----4h6----|
D|-----------------6-----6--------|
A|--------------------------------|
e|--------------------------------|

E|--------------------------------|
B|-------5---5--------4--------4--|
G|-----6-------6----4------4h6----|
D|-6s7-----7------6------6--------|
A|--------------------------------|
e|--------------------------------|

E|-----4-------4-------------------|
B|---5-----5h7---------4-------4---|
G|-6-----6-----------4-----4h6-----|
D|-----------------6-----6---------|
A|---------------------------------|
e----------------------------------|

E|-----------7-------------9-------|
B-------5-----5------7------7------|
G|-----6------------8--------------|
D|-6s7-----7------9------9---------|
A|---------------------------------|
e|---------------------------------|


VERSE 1:

E|--------4------------------|
B|--9---5--------2--4----4---|
G|9---6--------2------4----4-|
D|-----------4----------4----|
A|---------------------------|
e|---------------------------|

E
I see the king of glory
C#m
Coming down the clouds with fire
                F#m
The whole earth shakes
                G#m	    C#m
The whole earth shakes

E
I see his love and mercy
C#m
Washing over all our sin
           F#m
The people sing
           B
The people sing

CHORUS:
        G#m A
Ho ---	sanna 
  	B  C#m
Ho ---	sanna
  A	       C#m   B
Hosanna in the highest

  	G#m A
Ho ---	sanna 
  	B  C#m
Ho ---	sanna
  A	       B     C#m
Hosanna in the highest


VERSE 2:
E
I see a generation 
C#m
Rising up to take their place
	      F#m
With selfless faith 
	      G#m
With selfless faith

E
I see a near revival
C#m
Staring as we pray and seek
	     F#m
We’re on our knees
	     B
We’re on our knees

CHORUS:
        G#m A
Ho ---	sanna 
  	B  C#m
Ho ---	sanna
  A	       C#m   B
Hosanna in the highest

  	G#m A
Ho ---	sanna 
  	B  C#m
Ho ---	sanna
  A	       B     
Hosanna in the highest

Instumental:
C#m    E     F#m     G#m

C#m    E     F#m     G#m


BRIDGE:
A			  B
Heal my heart and make it clean
E			     C#m
Open my eyes to the things I see
A			 B		 C#m
Show me how to love like you, have loved me
A				B
Break my heart for what breaks yours
E			 C#m
Everything I am for your kingdom cause
A		        B	   E
As I walk from earth in to eternity


CHORUS/OUTRO:
        G#m A
Ho ---	sanna 
  	B  C#m
Ho ---	sanna
  A	       C#m   B
Hosanna in the highest

  	G#m A
Ho ---	sanna 
  	B  C#m
Ho ---	sanna
  A	       B     E
Hosanna in the highest

        G#m A
Ho ---	sanna 
        B  C#m
Ho ---	sanna
  A	       C#m   B
Hosanna in the highest

  	G#m A
Ho ---	sanna 
  	B  C#m
Ho ---	sanna
  A	       B     C#m
Hosanna in the highest
  A	       B     E
Hosanna in the highest
comments
print report bad tab
9 comments total. Showing first comments.
0 reply
Alfieri wrote on March 7 2008, 07:51 am

really good, cheers, but i think 'the whole earth shakes' chord should be a B..?

+1 reply
samuelgin wrote on August 11 2008, 03:06 pm

here's the part for in between verses if u want to post it


e|------4-----4-----7-----5-4-
b|---5------5-----5-----5-----
g|-6------6-----6-----6-------
d|----------------------------
a|----------------------------
e|----------------------------

0 reply
.Bobby wrote on February 20 2009, 05:41 am

Where's the solo?

I want to post or [tab]
guest
You may want to rate the tab now too:
select rating
Please do not post tabs as comments. Select "correction" instead!