Oops, an error
Loading. Please wait.

Lead Me To The Cross Chords

version 1
version 1

Whole song

Interactive

40,029 views 45 this week
3 commentsread comments
1 2 3 4 5
x 11
add to favorites
launch autoscroll
font size
0
reset
transpose
0
reset
simplify chords
display chords
guitar tuner
×
Best way to learn
"Lead Me To The Cross"
Autoscroll
slow
fast
+/-
esc
set tempo
stop
Author
HILLSONG UNITED - LEAD ME TO THE CROSS

Intro: Em,A2,G,Em,A2,G
 
Verse1:

 Bm           A2
Savior I come
           G      D  A2 
Quiet my soul remember
 Bm             A2
Redemptions hill
                   G
Where Your blood was spilled
       D     A2
For my ransom
 Bm          A2
Everything I once held dear
 Bm                G
I count it all as lost

Chorus:

              G
Lead me to the cross
           D           A2
Where Your love poured out
              G
Bring me to my knees
       D       A2
Lord I lay me down
          G 
Rid me of myself
     D       A2
I belong to You
        G    D     A2     Bm
Lead me, lead me to the cross

Solo:

e|-----------------------14-------|
B|---7-8-7-8-12-14-12-14----------|
G|--------------------------------|
D|--------------------------------|
A|--------------------------------|
E|--------------------------------|

e|-----------------------12------------|
B|---7-8-7-8-12-14-12-14----15-10-7----|
G|-------------------------------------|
D|-------------------------------------|
A|-------------------------------------|
E|-------------------------------------|


Verse2:

  Bm       A2
You were as I
            G
Tempted and trialed
   D   A2
You are
 Bm            A2
The word became flesh
               G   
Bore my sin and death
        D     A2
Now you're risen

Suggest correction
comments
print report bad tab
3 comments total.
0 reply
zeprider25 51 Nov 11, 2008 04:13 AM

Switch Em with Bm in verse 1 and 2:

Bm A2
Savior I come
G D A2
Quiet my soul remember
Bm A2
Redemptions hill
G
Where Your blood was spilled
D A2
For my ransom

easier to play this way for the electric part.

e|-------------------------14-------|
B|-------------12-14-12-14----------|
G|-11-12-11-12-------------------------|
D|--------------------------------|
A|--------------------------------|
E|--------------------------------|

e|-------------------------12------------|
B|-------------12-14-12-14----15-10-7----|
G|-11-12-11-12--------------------------------|
D|-------------------------------------|
A|-------------------------------------|
E|-------------------------------------|

-1 reply
manic_monkey90 47 Apr 29, 2009 08:44 AM

how can A2 be played?

0 reply
karl6971 32 Jan 26, 2010 03:37 PM

The electric guitar part should be with the slide part

e|------------------------14-------|
B|---7-8-7-8s-12-14-12-14----------|
G|---------------------------------|
D|---------------------------------|
A|---------------------------------|
E|---------------------------------|

e|------------------------12-------------|
B|---7-8-7-8s-12-14-12-14----15-10s-7----|
G|---------------------------------------|
D|---------------------------------------|
A|---------------------------------------|
E|---------------------------------------|

guest
You may want to rate the tab now too:
select rating
Wanna post a correction for this tab? Suggest correction