Oops, an error
Loading. Please wait.

Mighty To Save bass

1,302 views 12 this week
2 commentsread comments
1 2 3 4 5
x 10
add to favorites
×
Save as Personal and add changes to this tab that will be seen only by you. Learn more ›
×
You can save this tab as Personal to edit and correct it or add notes. All changes will be seen only by you. Learn more »
launch autoscroll
font size
0
reset
guitar tuner
edit
Autoscroll
slow
fast
+/-
esc
set tempo
stop
Author
Difficulty
-------------------------------------------------------------------------------
                             Mighty to save - Hillsong United
-------------------------------------------------------------------------------
Tabbed by: RedStone MotorBoat
E-mail: james_nthegym@yahoo.com
Cords:
http://tabs.ultimate-guitar.com/h/hillsong_united/mighty_to_save_ver4_crd.html

Tuning:G,D,A,E

Verse:
G|----------------------------------------------------------------|
D|----------------------------------------------------------------|
A|-5-------------------------------4---------------2--------------| Repeat
E|---------5---------------5--------------------------------------|
   1 + 2 + 3 + 4 + 1 + 2 + 3 + 4 + 1 + 2 + 3 + 4 + 1 + 2 + 3 + 4 +

Chorus:
G|----------------------------------------------------------------|
D|----------------------------------------------------------------|
A|---------------------------------5-5-5-----------4-5-4-2---4-2--| Repeat
E|-5---5---5---5---7---7---7---7---------5-----5------------------|
   1 + 2 + 3 + 4 + 1 + 2 + 3 + 4 + 1 + 2 + 3 + 4 + 1 + 2 + 3 + 4 + 

Bridge:
G|---|-------------------------------------------------------------|
D|---|-------------------------------------------------------------| 
A|-5-|-5-5-5-5-5-5-5-5-----------------2-2-2-2-2-2-2-2-2-2-4-4-4-4-| Repeat
E|---|-----------------5-5-5-5-5-5-5-5-----------------------------| 
   +   1 + 2 + 3 + 4 + 1 + 2 + 3 + 4 + 1 + 2 + 3 + 4 + 1 + 2 + 3 + 

Ending:
G|------------------------------------------------|
D|------------------------------------------------|
A|-5-5-5-5---------4-4-2-2-4-4-2-2----------------|
E|---------5-5-5-5-----------------5--------------|
   1 + 2 + 3 + 4 + 1 + 2 + 3 + 4 + 1 + 2 + 3 + 4 + 

Tuning:G,D,A,E
the tab is easier relative to capo 2

Verse:
G|----------------------------------------------------------------|
D|----------------------------------------------------------------|
A|-3-------------------------------2---------------0--------------| Repeat
E|---------3---------------3--------------------------------------|
   1 + 2 + 3 + 4 + 1 + 2 + 3 + 4 + 1 + 2 + 3 + 4 + 1 + 2 + 3 + 4 +

Chorus:
G|----------------------------------------------------------------|
D|----------------------------------------------------------------|
A|---------------------------------3-3-3-----------2-3-2-0---2-0--| Repeat
E|-3---3---3---3---5---5---5---5---------3-----3------------------|
   1 + 2 + 3 + 4 + 1 + 2 + 3 + 4 + 1 + 2 + 3 + 4 + 1 + 2 + 3 + 4 + 

Bridge:
G|---|-------------------------------------------------------------|
D|---|-------------------------------------------------------------| 
A|-3-|-3-3-3-3-3-3-3-3-----------------0-0-0-0-0-0-0-0-0-0-2-2-2-2-| Repeat
E|---|-----------------3-3-3-3-3-3-3-3-----------------------------| 
   +   1 + 2 + 3 + 4 + 1 + 2 + 3 + 4 + 1 + 2 + 3 + 4 + 1 + 2 + 3 + 

Ending:
G|------------------------------------------------|
D|------------------------------------------------|
A|-3-3-3-3---------2-2-0-0-2-2-0-0----------------|
E|---------3-3-3-3-----------------3--------------|
   1 + 2 + 3 + 4 + 1 + 2 + 3 + 4 + 1 + 2 + 3 + 4 + 

| /  slide up
| \  slide down
| h  hammer-on
| p  pull-off
| ~  vibrato
| +  harmonic
| x  Mute note
===============================================================================

            
            
Suggest correction
Creating personal tab
Creating personal tab
You can edit any tab online and save it as your Personal.

You can edit, replace or remove any tab part or add personal notes – all changes will be seen only by you.

Personal tabs can be accessed anytime from any device, even offline.
Learn more »
comments
print report bad tab
2 comments total.
0 reply
HappyRater 10 May 27, 2016 07:05 AM

nice job on the Tab

0 reply
fredfraz6463 10 May 27, 2016 07:38 AM

HAHAHAHAHAHAHAHAHAHAHA! A capo on a Bass! other than that good job!

guest
You may want to rate the tab now too:
select rating
Wanna post a correction for this tab? Suggest correction