Oops, an error
Loading. Please wait.

My God Tab

version 1
version 1

Whole song

1,715 views 3 this week
no commentswrite comment
1 2 3 4 5
3 more votes to show rating
add to favorites
launch autoscroll
font size
0
reset
how to read this tab
guitar tuner
Autoscroll
slow
fast
+/-
esc
set tempo
stop
Help us to improve Ultimate-Guitar.com Take our survey!
×
Author
Difficulty
novice
-------------------------------------------------------------------------------
                             My God - Hillsong United
-------------------------------------------------------------------------------
Tabbed by:William
Email:defcow412@yahoo.com

This is the way I play My God. Please don't pay attention to the spacing and timing, as 
they are not anywhere close to correct. I am pretty sure, however, that the notes are correct.

Tuning:Standard
Intro:
e|---------------------------------------------------------------------------|
B|---------------------------------------------------------------------------|
G|---------------------------------------------------------------------------|
D|---------------------------------------------------------------------------|
A|---7----7---676--67-----7---7----9----9------------------------------------|
E|-44--455-577----7-----44-455--577--777-7-----------------------------------|
Verse: All notes are strummed 8 times except the last C#
e|---------------------------------------------------------------------------|
B|---------------------------------------------------------------------------|
G|------4--6--------4--------------------------------------------------------|
D|7--2--4--6--7--2--4--------------------------------------------------------|
A|7--2--2--4--7--2--2--------------------------------------------------------|
E|5--0--------5--0-----------------------------------------------------------|
Pre-chorus: wait about 4 counts for these
e|---------------------------------------------------------------------------|
B|---------------------------------------------------------------------------|
G|---------------------------------------------------------------------------|
D|9--11--7-------------------------------------------------------------------|
A|9--11--7-------------------------------------------------------------------|
E|7--9---5-------------------------------------------------------------------|
Chorus: This is how I play the chorus. each note is strummed 4 times, but the last 4 are 
strummed 8 times
e|---------------------------------------------------------------------------|
B|---------------------------------------------------------------------------|
G|---------------------------------------------------------------------------|
D|---------------------------------------------------------------------------|
A|7--7--9--7--7--9--11--9--7--9----------------------------------------------|
E|4--5--7--4--5--5--9---7--5--7----------------------------------------------|
Solo: octaves! I did not count the strumming, so just listen to the song for it.
e|---------------------------------------------------------------------------|
B|---------------------------------------------------------------------------|
G|6--9--8--4-----------6--9--8--4--------6--9--------------------------------|
D|x--x--x--x--7--6--4--x--x--x--x--7--9--x--x--------------------------------|
A|4--7--6--2--x--x--x--4--7--6--2--x--x--4--7--------------------------------|
E|------------5--4--2--------------5--7--------------------------------------|
Bridge Pt 1: the first half of intro basically.
e|---------------------------------------------------------------------------|
B|---------------------------------------------------------------------------|
G|---------------------------------------------------------------------------|
D|---------------------------------------------------------------------------|
A|--7---7---676-67-----------------------------------------------------------|
E|44-455-577---7-------------------------------------------------------------|
Bridge pt 2: First part of chorus, played like the chorus.
e|---------------------------------------------------------------------------|
B|---------------------------------------------------------------------------|
G|---------------------------------------------------------------------------|
D|---------------------------------------------------------------------------|
A|7--7--9--------------------------------------------------------------------|
E|4--5--7--------------------------------------------------------------------|



Order:

Intro X2
Verse X2
Pre-chorus X2
Chorus X1
Verse X2
Pre-chorus X2
Chorus X2
Solo X1
Bridge pt 1 X4
Bridge pt 2 X4
Chorus X4


************************************

| /   slide up
| \   slide down
| h   hammer-on
| p   pull-off
| ~   vibrato
| +   harmonic
| x   Mute note
| b   Bend
| pb  Pre-bend
| br  Bend release
| pbr Pre-bend release
| brb Bend release bend

************************************
Suggest correction
Give kudos to tab author, rate the tab!
1 2 3 4 5
comments
print report bad tab
guest
You may want to rate the tab now too:
select rating
Wanna post a correction for this tab? Suggest correction