Oops, an error
Loading. Please wait.

My Redeemer Lives Bass Tab

21,570 views 27 this week
1 commentread comment
1 2 3 4 5
x 4
add to favorites
launch autoscroll
font size
0
reset
guitar tuner
Autoscroll
slow
fast
+/-
esc
set tempo
stop
Help us to improve Ultimate-Guitar.com Take our survey!
×
Author
Difficulty
intermediate
[Intro 1] 
(guitar 4 bars)

[Intro 2] 
(full band) 
 E7               A7
 1+2+3+4+5+6+7+8+ 1+2+3+4+5+6+7+8+   
G|---------------|---------------| 
D|---------------|---------------| 
A|---------------|--4--4-444-5-7-| 
E|00--7-07-04-5-7|55--5----------|x2

[verse 1] x2
 E7               A7                 E7               A7
 1+2+3+4+5+6+7+8+ 1+2+3+4+5+6+7+8+   1+2+3+4+5+6+7+8+ 1+2+3+4+5+6+7+8+
G|---------------|---------------|  |---------------|---------------|
D|---------------|---------------|  |---------------|----7--5--4-02-|
A|---------------|--4--4-444-5--7|  |---7--55-44----|00~~--0~~0~~~~-|
E|00--7-07-04-5-7|55--5----------|x2|00---0------7/4|---------------|x2

[Pre-chorus]
 B                 B                A7        Bmaj
 1+2+3+4+5+6+7+8+  1+2+3+4+5+6+7+8+ 1+2+3+4+5+6+7+8+  
G|----------------|---------------|----------------|
D|----------------|---------------|----------------|
A|2---2---2---2---|2---2---2---4--| 0~~~~~~~2-2-2-2|
E|----------------|---------------|----------------|

[Chorus] x2
 E7               A7               C#7              Bm
 1+2+3+4+5+6+7+8+ 1+2+3+4+5+6+7+8+ 1+2+3+4+5+6+7+8+ 1+2+3+4+5+6+7+8+
G|---------------|---------------|---------------|---------------|
D|---------------|---------------|---------------|---------------|
A|---------------|-----4-44-h5-7-|4~~~~--4---4---|---------------|
E|0-0---0-7-0-7-0|5-x-5----------|-----4---4---4/|7-7-5-5-4-4-5-7|

[Bridge]
 E7               A7
 1+2+3+4+5+6+7+8+ 1+2+3+4+5+6+7+8+   
G|---------------|---------------| 
D|---------------|---------------| 
A|---------------|--4--4-444-5--7| 
E|00--7-07-04-5-7|55--5----------|x2

[Verse 2] x2
 E7               A7                 E7               A7
 1+2+3+4+5+6+7+8+ 1+2+3+4+5+6+7+8+   1+2+3+4+5+6+7+8+ 1+2+3+4+5+6+7+8+
G|---------------|---------------|  |---------------|---------------|
D|---------------|---------------|  |---------------|----7--5--4-02-|
A|---------------|--4--4-444-5--7|  |----57-5-4~----|00~~~~0~~0~~---|
E|00--7-07-04-5-7|55--5----------|x2|00----0-0---757|---------------|x2
                                           hM M
[Pre-chorus]
 Bsus4/B            B                A7       Bmaj
 1+2+3+4+5+6+7+8+  1+2+3+4+5+6+7+8+ 1+2+3+4+5+6+7+8+  
G|----------------|---------------|----------------|
D|----------------|---------------|----------------|
A|2---2---2---2---|2---2---2---4--|0!~~~~~~~2-2-2-2|
E|----------------|---------------|----------------|

[Chorus 2]  x3
 E7/E             A7/A             C#7/C#           Bm/B
 1+2+3+4+5+6+7+8+ 1+2+3+4+5+6+7+8+ 1+2+3+4+5+6+7+8+ 1+2+3+4+5+6+7+8+
G|---------------|---------------|---------------|---------------|
D|---------------|---------------|---------------|---------------|
A|---------------|-----4-44-h5-7-|4~~~~--4---4---|---------------|
E|0-0---0-7-0-7-0|5-x-5----------|-----4---4---4-|7-7-5-5-4-4-5-7|

 E7/E             A7/A             C#7/C#           Bm/B
 1+2+3+4+5+6+7+8+ 1+2+3+4+5+6+7+8+ 1+2+3+4+5+6+7+8+ 1+2+3+4+5+6+7+8+
G|---------------|---------------|---------------|----------------|
D|---------------|---------------|---------------|----------------|
A|---------------|-----4-44-h5-7-|4~~~~--4---4---|----6-6-7-//99\\|
E|0~~~--0-7-0-7-0|5-x5-----------|-----4---4---4-|7-7-------------|

[Bridge]
 Dmaj/D           Dmaj/D           A7/A             A7/A
 1+2+3+4+5+6+7+8+ 1+2+3+4+5+6+7+8+ 1+2+3+4+5+6+7+8+ 1+2+3+4+5+6+7+8+
G|---------------|---------------|---------------|---------------|
D|---------------|---------------|---------------|---------------|
A|5----5-----5--5|-5--5----5--5-7|-4---4----4--4-|--4--4-----4-4/|
E|---------------|---------------|---------------|---------------|

 Bsus4/B          A7/A             Bsus4/B          Bm/B
 1+2+3+4+5+6+7+8+ 1+2+3+4+5+6+7+8+ 1+2+3+4+5+6+7+8+ 1+2+3+4+5+6+7+8+
G|---------------|---------------|---------------|----------------|
D|---------------|---------------|---------------|--/9/11-9~~~~~~~|
A|2----2----2--2-|0--0----0--0--0|2----2-----4-2/|//--------------|
E|---------------|---------------|---------------|----------------|

[Chorus] x2
 E7               A7               C#7              Bm
 1+2+3+4+5+6+7+8+ 1+2+3+4+5+6+7+8+ 1+2+3+4+5+6+7+8+ 1+2+3+4+5+6+7+8+
G|---------------|---------------|---------------|---------------|
D|---------------|---------------|---------------|---------------|
A|---------------|-----4-44-h5-7-|4~~~~--4---4---|---------------|
E|0-0---0-7-0-7-0|5-x-5----------|-----4---4---4/|7-7-5-5-4-4-5-7|

[Bridge]
 E7               A7
 1+2+3+4+5+6+7+8+ 1+2+3+4+5+6+7+8+   
G|---------------|---------------| 
D|---------------|---------------| 
A|---------------|--4--4-444-5--7| 
E|00--7-07-04-5-7|55--5----------|x2
  
[Chorus 3]
(VOCAL AND DRUM BREAK MY REDEEMER LIVES X8 THEN ENTER BASS)
 E7/E             A7/A             C#7/C#           Bm/B
 1+2+3+4+5+6+7+8+ 1+2+3+4+5+6+7+8+ 1+2+3+4+5+6+7+8+ 1+2+3+4+5+6+7+8+
G|---------------|---------------|---------------|---------------|
D|---------------|---------------|---------------|---------------|
A|--7---5---4---2|--4--4-444-h5-7|4~~~~--4---4---|----6-6-7-7-9-9|
E|0---0---0---0--0|55--5----------|-----4---4---4-|7-7------------|
                {_}16th 

 E7/E             A7/A             C#7/C#           Bm/B
 1+2+3+4+5+6+7+8+ 1+2+3+4+5+6+7+8+ 1+2+3+4+5+6+7+8+ 1+2+3+4+5+6+7+8+
G|---------------|---------------|---------------|---------------|
D|---------------|---------------|---------------|---------------|
A|---------------|-----4-44-h5-7-|4~~~~--4---4---|----6-6-7-7-9-9|
E|0~~~--0-7-0-7-0|5xx5-----------|-----4---4---4-|7-7------------| x2
 
 E7/E             A7/A             C#7/C#           Bm/B
 1+2+3+4+5+6+7+8+ 1+2+3+4+5+6+7+8+ 1+2+3+4+5+6+7+8+ 1+2+3+4+5+6+7+8+
G|---------------|---------------|---------------|---------------|
D|---------------|---------------|---------------|---------------|
A|7-7-5-5-4-4----|---------------|4~~~~--4---4---|----6-6-7-7-9-9|
E|------------7-7|5-5-4-4-2-2-0-0|-----4---4---4-|7-7------------|TILL END


************************************

| ~  Vibrato
| x  Dead note
| /  Slide up
| h  Hammer-on
| \  Slide down

************************************
Suggest correction
comments
print report bad tab
1 comment total.
0 reply
Cabbage93 31 Jun 27, 2009 08:38 AM

Absolutely spot on. Cheers :)

guest
You may want to rate the tab now too:
select rating
Wanna post a correction for this tab? Suggest correction