Oops, an error
Loading. Please wait.

Oceans Where Feet May Fail bass

15,592 views 117 this week
4 commentsread comments
1 2 3 4 5
x 32
add to favorites
×
Save as Personal and add changes to this tab that will be seen only by you. Learn more ›
×
You can save this tab as Personal to edit and correct it or add notes. All changes will be seen only by you. Learn more »
launch autoscroll
font size
0
reset
guitar tuner
edit
Autoscroll
slow
fast
+/-
esc
set tempo
stop
Author
Difficulty
Oceans - Bass Tab

Note: No bass until first verse.

[Verse I]
[x2]
G|------------------------------------------------------------|
D|------------------------------------------------------------|
A|-2--------4------5------------------------------------------|
E|------------------------------5-----------3-----------------|

[Chorus I]
[x3]
G|------------------------------------------------------------|
D|------------------------------------------------------------|
A|------------5-----------------------------------------------|
E|-3---------------------5------------------------------------|

[x1]
G|------------------------------------------------------------|
D|------------------------------------------------------------|
A|------------------------------------------------------------|
E|-3----------5-----------------------------------------------|

[Interlude I]
G|------------------------------------------------------------|
D|------------------------------------------------------------|
A|-2--2--2--2--2--2--4--4--5--5--5--5--5--5-------------------|
E|-------------------------------------------3--3--5--5--5--5-|

G|------------------------------------------------------------|
D|------------------------------------------------------------|
A|-------2--2-------------------------------------------------|
E|-5--5--------3--3--3--3--3--3--3--3-------------------------|

[Verse II]
[x2]
G|------------------------------------------------------------|
D|------------------------------------------------------------|
A|-2--2--2--2--2--2--4--4--5--5--5--5--5--5--5--5-------------|
E|-------------------------------------------------5--5--5--5-|

G|------------------------------------------------------------|
D|------------------------------------------------------------|
A|------------------------------------------------------------|
E|-5--5--5--5--3--3--3--3--3--3--3--3-------------------------|

[Chorus II]
G|------------------------------------------------------------|
D|------------------------------------------------------------|
A|--------------5----5--5-------------------------------------|
E|-3----3--3-----------------5----5--5----5----5--5-----------|

G|------------------------------------------------------------|
D|------------------------------------------------------------|
A|--------------5----5--5---------------5h7-------------------|
E|-3----3--3-----------------5----5--5-------5----5--5--------|

G|------------------------------------------------------------|
D|------------------------------------------------------------|
A|--------------5----5--5-------------------------------------|
E|-3----3--3-----------------5----5--5----5----5--5-----------|

G|------------------------------------------------------------|
D|------------------------------------------------------------|
A|------------------------------------------------------------|
E|-3----3--3----3----3--5-------------------------------------|

[Interlude II]
[x2]
G|------------------------------------------------------------|
D|------------------------------------------------------------|
A|-2--2--2--2--2--2--4--4--5--5--5--5--5--5-------------------|
E|-------------------------------------------3--3--5--5--5--5-|

G|------------------------------------------------------------|
D|------------------------------------------------------------|
A|-------2--2-------------------------------------------------|
E|-5--5--------3--3--3--3--3--3--3--3-------------------------|

[Bridge] (The number of repeats may be a bit off because there 
are so many repeats, so let me know if I'm a bit off.)
[x9]
G|------------------------------------------------------------|
D|------------------------------------------------------------|
A|-2---------------------5------------------------------------|
E|------------3---------------------5-------------------------|

[x2]
G|------------------------------------------------------------|
D|------------------------------------------------------------|
A|------------5---------------------7-------------------------|
E|-3---------------------5------------------------------------|

[x3]
G|------------------------------------------------------------|
D|------------------------------------------------------------|
A|-2----------5---------------------7-------------------------|
E|-----------------------5------------------------------------|

[x2]
G|------------------------------------------------------------|
D|------------------------------------------------------------|
A|-2--2--2--2--2--2--2--2--5--5--5--5--5--5--5--5-------------|
E|-------------------------------------------------5--5--5--5-|

G|------------------------------------------------------------|
D|------------------------------------------------------------|
A|------------------------------------------------------------|
E|-5--5--5--5--3--3--3--3--3--3--3--3-------------------------|

[Interlude III]
[x2]
G|------------------------------------------------------------|
D|------------------------------------------------------------|
A|-2--2--2--2--2--2--2--2--5--5--5--5--5--5--5--5-------------|
E|-------------------------------------------------5--5--5--5-|

G|------------------------------------------------------------|
D|------------------------------------------------------------|
A|------------------------------------------------------------|
E|-5--5--5--5--3--3--3--3--3--3--3--3-------------------------|

[Chorus III]
[x3]
G|------------------------------------------------------------|
D|------------------------------------------------------------|
A|------------5-----------------------------------------------|
E|-3---------------------5------------------------------------|

[x1]
G|------------------------------------------------------------|
D|------------------------------------------------------------|
A|-----------------2----------4----5~-------------------------|
E|-3----------5-----------------------------------------------|

If there's any confusion, questions, or advice on how to 
improve it, please post a comment. Feel free to check out 
my guitar and bass covers on YouTube.  

https://www.youtube.com/user/Trarrgargra

Have fun playing, and please rate! 

-Rarrlow
Suggest correction
Creating personal tab
Creating personal tab
You can edit any tab online and save it as your Personal.

You can edit, replace or remove any tab part or add personal notes – all changes will be seen only by you.

Personal tabs can be accessed anytime from any device, even offline.
Learn more »
comments
print report bad tab
4 comments total. Showing first comments.
0 reply
holygirl9 47 Dec 30, 2014 08:40 AM

This is perfect! Thanks so much for posting! I'm just starting to learn the bass, and finding something that I could play was really cool! Thanks again :)

0 reply
baybayshak 10 Jul 10, 2015 02:41 AM

Theres a Bass fill somewhere in Chorus 2 that goes

G|------------------------------------------------------------|
D|-------------------------------------------5----------------|
A|--------------5----5--5---------------5h7-------------------|
E|-3----3--3-----------------5----5--5------------5--5--------|

0 reply
bjarneks 10 Feb 09, 2016 07:26 AM

The third interlude is wrong, it should be like this instead:

G|------------------------------------------------------------|
D|------------------------------------------------------------|
A|-2--2--2--2--2--2------5--5--5--5--5--5--5--5---------------|
E|------------------5--5---------------------------5--5--5--5-|

G|------------------------------------------------------------|
D|------------------------------------------------------------|
A|------------------------------------------------------------|
E|-5--5--5--5--0--0--0--0--0--0--0--0-------------------------|

guest
You may want to rate the tab now too:
select rating
Wanna post a correction for this tab? Suggest correction