Oops, an error
Loading. Please wait.

Oceans Where Feet May Fail intro tab

version 1
version 1

Intro

Whole song

  • It's extremely accurate and easy to learn.
  • Different tab than anything on here already, fairl... Show more
  • This is a live acoustic version at "the Relevant" ... Show more
33,501 views 57 this week
6 commentsread comments
1 2 3 4 5
x 25
add to favorites
×
Save as Personal and add changes to this tab that will be seen only by you. Learn more ›
×
You can save this tab as Personal to edit and correct it or add notes. All changes will be seen only by you. Learn more »
launch autoscroll
font size
0
reset
how to read this tab
guitar tuner
edit
Autoscroll
slow
fast
+/-
esc
set tempo
stop
Author
Difficulty
intermediate
[Intro]

e|----------0---------------0-----------------0---------------0-------|
B|------7-------7-------7-----7---7-------7-------7-------7-----7---7-|
G|----7---7---7---7---7---7-----7-------7---7---7---7---7---7-----7---|
D|--9---------------9-----------------7---------------7---------------|
A|--------------------------------------------------------------------|
E|--------------------------------------------------------------------|

e|----------0---------------0-----------------0---------------0-------|
B|------5-------5-------5-----5---5-------8-------8-------8-----8---8-|
G|----6---6---6---6---6---6-----6-------7---7---7---7---7---7-----7---|
D|--7---------------7-----------------9---------------9---------------|
A|--------------------------------------------------------------------|
E|--------------------------------------------------------------------|

            
            
Suggest correction
Creating personal tab
Creating personal tab
You can edit any tab online and save it as your Personal.

You can edit, replace or remove any tab part or add personal notes – all changes will be seen only by you.

Personal tabs can be accessed anytime from any device, even offline.
Learn more »
comments
print report bad tab
6 comments total. Showing first comments.
+1 reply
itsshaw 61 Sep 07, 2013 12:11 PM

Chorus (1:04)
G D A Asus (x3)
e|------7-------7-------------14----------14------------9--------9--------9--------10---|
B|--------------------------------------------------------------------------------------|
G|----7---7---7---7--------14----14----14----14-------9---9----9---9----9---9----9----9-|
D|--9-------9-------9s16------------16----------16s11-------11-------11-------11--------|
A|--------------------------------------------------------------------------------------|
E|--------------------------------------------------------------------------------------|

G Bm (Straight to Instrumental)
e|------7-------7-------7----------9---|
B|-------------------------------------|
G|----7---7---7---7---7---7------9---9-|
D|--9-------9-------9-------9s11-------|
A|-------------------------------------|
E|-------------------------------------|

Instrumental (1:29)
Bm D
e|---------0~--------0~---------------0~--------0~------|
B|-----7-----7---7-----7---7------7-----7---7-----7---7-|
G|-------7---------7-----7----------7---------7-----7---|
D|--9~-------------------------7~-----------------------|
A|------------------------------------------------------|
E|------------------------------------------------------|

A Em
e|---------0~--------0~---------------0~--------0~------|
B|-----5-----5---5-----5---5------8-----8---8-----8---8-|
G|-------6---------6-----6----------9---------9-----9---|
D|--7~-------------------------9~-----------------------|
A|------------------------------------------------------|
E|------------------------------------------------------|

Verse 2 (1:44)
Bm A/C# D Dsus
e|------------------------------------------------------|
B|------------------------------------------------------|
G|------7------7------7--------9--------11-------11-------11-------12-|
D|----9------9------9-------11-------12-------12-------12-------12----|
A|--9------9------9------12-------12-------12-------12-------12-------|
E|--------------------------------------------------------------------|

A G
e|---------------------------------------------------------|
B|---------------------------------------------------------|
G|------6------6------6------7------4------4------4------4-|
D|----7------7------7------7------5------5------5------5---|
A|--7------7------7------7------5------5------5------5-----|
E|---------------------------------------------------------|

Chorus 2 (2:13) - Same as above

Instrumental 2 (2:38) - Same as above, x2

Last Chorus (7:13)
G D A (x3)
e|-----------------------------------|
B|-----------------------------------|
G|--4--------7--------6--------------|
D|--5--------7--------7--------------|
A|--5--------5--------7--------4-5-7-|
E|--3--------5--------5--------------|

That seems to be all the distinct parts; everything else is either piano/synth or chords. Enjoy!

0 reply
jjbeast44 10 Sep 09, 2013 06:42 PM

great correction post to the original but one question do I come in at the chorus or at the intro and is the intro the original post

0 reply
jjbeast44 10 Sep 09, 2013 07:47 PM

nevermind is the top part the bridge

guest
You may want to rate the tab now too:
select rating
Wanna post a correction for this tab? Suggest correction