Oops, an error
Loading. Please wait.

Perfect Love tab

version 2
version 2

Whole song

70 views 3 this week
no commentswrite comment
1 2 3 4 5
2 more votes to show rating
add to favorites
×
Save as Personal and add changes to this tab that will be seen only by you. Learn more ›
×
You can save this tab as Personal to edit and correct it or add notes. All changes will be seen only by you. Learn more »
launch autoscroll
font size
0
reset
how to read this tab
guitar tuner
edit
Autoscroll
slow
fast
+/-
esc
set tempo
stop
Author
Difficulty
Perfect Love - Hillsong United
[off the album: In A Valley By The Sea]
Tabbed By: JD TAYONA
email: darwinjohn1995@gmail.com



[LEGEND]

~     -vibrato
b(n)  -bend up to fret (n)
(n)r  -release bend from (n)
\     -slide down



[TUNING] 

E A D G B E 



[1] LEAD PARTS



[INTRO]

.[CAPO 4th]..........................................................
E|-------------------------------------------------------------------|
B|---------3----------------3---------------3---------------3--------|
G|-----0-----0---0------0-----0---0-----0-----0---0-----0-----0---0--|
D|---4---4-----4------4---4-----4-----4---4-----4-----4---4-----4----| 2x
A|------------------3-------------------------------5----------------|
E|-0--------------------------------3--------------------------------|

[VERSE]
(DO INTRO RIFF)


[PRECHORUS]

.[CAPO 4th]..................................................
E|-----------------------------------------------------------|
B|-----------3---------3--------------------3-------3--------|
G|---0-2---0---5---0-7-----0-5------0-2---0---5-0-----5-0----|
D|-----------------------------4------------------0-------0--|
A|-------3---------------5--------------3--------------------|
E|-0-------------3----------------0--------------------------|



[CHORUS](CHORDS)

[PREVERSE](DO INTRO RIFF)




[VERSE 2]
(INTRO RIFF) then:

E|-----------------------------------------------------|
B|-----------------------------------------------------|
G|----9*----9~~~-8~~~-11~~~-16~~~-9~~~-8~~~-6~~~-------|
D|-----------------------------------------------------|
A|-----------------------------------------------------|
E|-----------------------------------------------------|



[PRECHORUS 2]

   (4x)(8x)(4x)(8x)(4x)(2x)(2x)(8x)(16x)
E|-----------------------------------------------------|
B|-----------------------------------------------------|
G|------11--9---8---6---9---8-------9------------------|
D|--9----------------------------9---------------------|
A|-----------------------------------------------------|
E|-----------------------------------------------------|


[CHORUS 2]

E|-----11-9-9----14----------9--|
B|--12--------12----12-12-12----|
G|------------------------------|
D|------------------------------|
A|------------------------------|
E|------------------------------| (CONTINUE...)



[SOLO]

E|-------------------------------------------------------|
B|--9-------9-9---------9-9-------------11-----11--------|
G|--11b(13)-----11b(13)-----11b(13)r11--13b(15)----------|
D|-------------------------------------------------------|
A|-------------------------------------------------------|
E|-------------------------------------------------------|

E|-------------------------------------------------------|
B|--12------12-12---------12-12-------------14-----14----|
G|--14b(16)-------14b(16)-------14b(16)r14--16b(18)------|
D|-------------------------------------------------------|
A|-------------------------------------------------------|
E|-------------------------------------------------------|

E|-------------------------------------------------------|
B|--16------16-16---------16-16--------------------------|
G|--18b(20)-------18b(20)-------18b(20)----r18-18--------|
D|-------------------------------------------------------|
A|-------------------------------------------------------|
E|-------------------------------------------------------|

E|-----14-14----14-14----14-14----14-14----14-14-14------|
B|-------------------------------------------------------|
G|--16-------16-------16-------16-------16---------------|
D|-------------------------------------------------------|
A|-------------------------------------------------------|
E|-------------------------------------------------------|

E|-------------------------------------------------------|
B|--16------16-16---------16-16--------------------------|
G|--18b(20)-------18b(20)-------18b(20)------------------|
D|-------------------------------------------------------|
A|-------------------------------------------------------|
E|-------------------------------------------------------|

E|----------------------------------------------------------18------|
B|--16------16-16---------16-16---------16-16---------16-16----16---|
G|--18b(20)-------18b(20)-------18b(20)-------18b(20)---------------|
D|------------------------------------------------------------------|
A|------------------------------------------------------------------|
E|------------------------------------------------------------------|

E|-------------------------------------------------------|
B|--16------16-16---------16-16--------------------------|
G|--18b(20)-------18b(20)-------18b(20)----r18-18--------|
D|-------------------------------------------------------|
A|-------------------------------------------------------|
E|-------------------------------------------------------|

E|-----14-14----14-14----14-14----14-14----14-14\\\------|
B|-------------------------------------------------------|
G|--16-------16-------16-------16-------16---------------|
D|-------------------------------------------------------|
A|-------------------------------------------------------|
E|-------------------------------------------------------|



[Bridge]

E|-----------14-11----11----------14-11-----------------|
B|--------12-------14----------12-------14-12-----------|
G|--11-13----------------11-13--------------------------|
D|------------------------------------------------------|  2x
A|------------------------------------------------------|
E|------------------------------------------------------|

            (3x)(3x)(3x)(3x)         (3x)(3x)(3x)(4x)
E|-----------14--11------11-----------14--11------------|
B|--------12---------14------------12---------14--12----|
G|--11-13--------------------11-13----------------------|
D|------------------------------------------------------| 3x
A|------------------------------------------------------|
E|------------------------------------------------------|

            (3x)(3x)(3x)(3x)
E|-----------14--11------11--|
B|--------12---------14------|
G|--11-13--------------------|
D|---------------------------|
A|---------------------------|
E|---------------------------|  G-

END...


[2] CHORDS

.[CAPO 4th]....

INTRO:
Em- C- G- D-

VERSE:
Em- C- G- D-

PRECHORUS:
Em- C- G- D-

Em- C-

CHORUS:
G- D- Em- C-

G- D-


PREVERSE:
(INTRO CHORDS)

SOLO:
C- D- Em- D- C- D-

G-

BRIDGE:
(SOLO CHORDS)

OUTRO:
(BRIDGE CHORDS)



            
            
Suggest correction
Creating personal tab
Creating personal tab
You can edit any tab online and save it as your Personal.

You can edit, replace or remove any tab part or add personal notes – all changes will be seen only by you.

Personal tabs can be accessed anytime from any device, even offline.
Learn more »
Give kudos to tab author, rate the tab!
1 2 3 4 5
comments
print report bad tab
guest
You may want to rate the tab now too:
select rating
Wanna post a correction for this tab? Suggest correction