Oops, an error
Loading. Please wait.

Salvation Is Here bass

version 1
version 1

Whole song

Interactive

54,328 views 18 this week
6 commentsread comments
1 2 3 4 5
x 6
add to favorites
×
Save as Personal and add changes to this tab that will be seen only by you. Learn more ›
×
You can save this tab as Personal to edit and correct it or add notes. All changes will be seen only by you. Learn more »
launch autoscroll
font size
0
reset
guitar tuner
edit
Autoscroll
slow
fast
+/-
esc
set tempo
stop
Author
just figured out the solo made me wanna tab it....


if you know anything about tabs you know the stuff im not gonna put up here
like what this means...../
             or this.....x

easy stuff...so, right ,tab
 hillsongs basser uses a 5 string, so do I,, but he doesnt use the b string in this song 
dont think so i wont put it up there

note counts arent accurate but its easy to listen and figure out how many times hes 
the string i just tell you where to hit


G]----------------------------------14-16-------14-16------------|
D]---------------------------------------------------------------|2x
A]----/14-14-14-14-14-14\--14-14-14-------14-14------------------|
E]---------------------------------------------------------------|

"God above..."
G]-------------------------------------------------------------|
D]-------------------------------------------------------------|2x
A]----/14-14-14-14-14-14\--11-11-11--99999----77777------------|
E]-------------------------------------------------------------|

on second time rite after you hit the 7th fret on d string hit open E then do


G]-------------------------------------------------------------|
D]-------------------------------------------------------------|2x
A]-------------------------------------------------------------|
E]---77777777--4444444--22222222-0000000-----------------------|


G]-------------------------------------------------------------|
D]-------------------------------------------------------------|
A]-------------------------------------------------------------|
E]---2-4-4--2-4-4---0000---------------------------------------|

"cuz i know now.."
G]-------------------------------------------------------------|
D]-------------------------------------------------------------|2x
A]-----------------------------------((2-44-2-44-4/7))---------|
E]---777777-000000-222222-444444-------------------------------|

((play part in parentheses only on second time))
now play the intro again twice then play the verse again like you did at the beginning 
do last time only once....that sounds confusing but listen to the song and youll understand

then for second chorus play this

G]-------------------------------------------------------------|
D]-------------------------------------------------------------|4x
A]--------------------------------------------((2-44-2-44-4/7))|
E]---777-777-7-000-000-0-222-222-2-444-444-4-------------------|

just like first chorus only play parentheses the second and fourth time


NOW FOR THE FUN PART

G]---------161616-181818-1616----16------------------------1818-1616------|
D]-18181818-------------------1818--18-------/181818-161616----------1616-|
A]------------------------------------141414------------------------------|
E]------------------------------------------------------------------------|

G]----------------161616-----1616---------------------202020-1818-1616-|
D]-14141414/181818-------1818-----1818---------181818------------------|
A]-------------------------------------16161616------------------------|
E]---------------------------------------------------------------------|

all of that 4x then play exacteley that same thing but an octave lower 2x

if you dont know what that means go ask someone cause im not typing that whole solo 
know that sounds mean and all but its midnight and im tired....:]

then the chorus
then a brief pause where you slide up to the 14th fret on the a string and let ring
then go back into the chorus a couple times and thats it

for the outro,, play the intro ......ironic

last note is 6th fret on E string you can let it ring or folo the double bass i dont care


good night.

            
            
Suggest correction
Creating personal tab
Creating personal tab
You can edit any tab online and save it as your Personal.

You can edit, replace or remove any tab part or add personal notes – all changes will be seen only by you.

Personal tabs can be accessed anytime from any device, even offline.
Learn more »
comments
print report bad tab
6 comments total. Showing first comments.
0 reply
biga29 263 Mar 25, 2008 03:38 PM

whoops, i wrote this tab
in the intro play the notes on the D string on the A string

but everything else is write... sorry bout that

0 reply
biga29 263 Apr 26, 2008 05:40 PM

.

0 reply
follower4582 10 Feb 03, 2009 09:46 AM

gosh this song is pretty hard. hillsong united's bassist is amazing

guest
You may want to rate the tab now too:
select rating
Wanna post a correction for this tab? Suggest correction