Oops, an error
Loading. Please wait.

Saviour King Tab

5,651 views 21 this week
no commentswrite comment
1 2 3 4 5
please rate
add to favorites
launch autoscroll
font size
0
reset
how to read this tab
guitar tuner
Tab Pro tools
  • play this tab
  • loop segment
  • change instrument
  • show fretboard
  • metronome
×
Best way to learn
"Saviour King"
Autoscroll
slow
fast
+/-
esc
set tempo
stop
Difficulty
intermediate
Version ALL OF THE ABOVE 2007

This is my first tab xd



Note: hear the CD song for the time
Instruments used: 
Guitar 1
Guitar 2
Acoustic Guitar
Piano 
Drums 

INTRO:

   Dm  C  F       Dm  C  F
E|--8--6--5-(x2)--------------|
B|----------------8--11--10---|
G|----------------------------|
D|----------------------------|
A|----------------------------|
E|----------------------------|

VERSE 1  (piano)

     Dm          C         F         Gm    
E|----------|---------|---------|-----------|
B|----------|---------|---------|-----------|
G|----------|---------|---------|-----------|
D|----------|---------|---------|-----------|
A|----------|---------|---------|-----------|
E|----------|---------|---------|-----------|

     Dm        Dm          C         F
E|----------|---------|---------|-----------|
B|----------|---------|---------|-----------|
G|----------|---------|---------|-----------|
D|----------|---------|---------|-----------|
A|----------|---------|---------|-----------|
E|----------|---------|---------|-----------|

In this part the electric guitar make a soft sound of chors

PRE-CHORUS :

      Dm           Bb        (Fsus4 - F)  (Csus4 - C)
E|------------|------------|------------|------------|
B|--------10--|--------11--|--------13--|--------13--|
G|-----10-----|-----10-----|-----14-----|-----12-----|
D|--12--------|--12--------|--15--------|--14--------|
A|------------|------------|------------|------------|
E|------------|------------|------------|------------|

       Dm           Bb          Gm           C(in the second time play together)
E|------------|------------|------------|------------|
B|--------10--|--------11--|--------15--|--------17--|
G|-----10-----|-----10-----|-----15-----|-----17-----|
D|--12--------|--12--------|--17--------|--17--------|
A|------------|------------|------------|------------|
E|------------|------------|------------|------------|

CHORUS 1: (guitar 1) lead
     F           F        Dm           Dm   
E|----------|---------|---------|-----------|
B|--10-8-6--|---------|---------|-----------|
G|----------|---------|---------|-----------|
D|----------|---------|---------|-----------|
A|----------|---------|---------|-----------|
E|----------|---------|---------|-----------|

    C          C           F            F
E|----------|---------|---------|-----------|
B|----------|---------|---------|-----------|
G|----------|---------|---------|-----------|
D|----------|---------|---------|-----------|
A|----------|---------|---------|-----------|
E|----------|---------|---------|-----------|


VERSE 2 (x2) and for the rest of verses

     Dm          C         F         Gm    
E|----------|---------|---------|-----------|
B|----------|---------|---------|-----------|
G|----------|---------|---------|-----------|
D|----------|---------|---------|-----------|
A|----------|---------|---------|-----------|
E|----------|---------|---------|-----------|

     Dm        Dm          C         F
E|----------|---------|---------|-----------|
B|----------|---------|---------|-----------|
G|----------|---------|---------|-----------|
D|----------|---------|---------|-----------|
A|----------|---------|---------|-----------|
E|----------|---------|---------|-----------|

PRE-CHORUS (second time)

CHORUS: (guitar 2) can be player since chorus 3 
             F                         Dm
E|-------------------------|------------------------|
B|-------------------------|------------------------|
G|------5---5------5---5---|------5---5-----5---5---|
D|----3---3------3---3-----|----7---7-----7---7-----|
A|--3----------3-----------|--5---------5-----------|
E|-------------------------|------------------------|

              C                        F
E|-------------------------|------------------------|
B|-------------------------|------------------------|
G|------5---5------5---5---|------5---5------5---5--|
D|----5---5------5---5-----|----3---3------3---3----|
A|--3----------3-----------|--3----------3----------|
E|-------------------------|------------------------|

CHORUS 1, 2, 3, 4, 1, 4

 F  F  Dm  Dm  C  C  F  F (in the last chorus keep in F )

PRE-CHORUS : (third time) i can hear an acoustic guitar

      Dm           Bb        (Fsus4 - F)  (Csus4 - C) \           
E|------------|------------|------------|------------| |
B|--------10--|--------11--|--------13--|--------13--| |
G|-----10-----|-----10-----|-----14-----|-----12-----| |
D|--12--------|--12--------|--15--------|--14--------| | 3 times
A|------------|------------|------------|------------| |
E|------------|------------|------------|------------| |
                                                      /
       Dm           Bb          Gm           C
E|------------|------------|------------|------------|
B|--------10--|--------11--|--------15--|----17------|
G|-----10-----|-----10-----|-----15-----|----17------|
D|--12--------|--12--------|--17--------|----17------|
A|------------|------------|------------|------------|
E|------------|------------|------------|------------|


CHORUS 1, 2
   F           F        Dm           Dm   
E|--13------|--13-----|--13------|--13-------|
B|------13--|------13-|------13--|------13---|
G|----------|---------|----------|-----------|
D|----------|---------|----------|-----------|
A|----------|---------|----------|-----------|
E|----------|---------|----------|-----------|

    C          C           F            F
E|--13------|--13-----|--13------|--13-------|
B|------13--|------13-|------13--|------13---|
G|----------|---------|----------|-----------|
D|----------|---------|----------|-----------|
A|----------|---------|----------|-----------|
E|----------|---------|----------|-----------|

CHORUS 3, 4 play complete chords 

FINAL (INSTRUMENTAL)                      \ 
E|--8-8-8-5-4-4-4-4h5-8-8-8-5-4-4-4-4----| |
B|---------------------------------------| |
G|---------------------------------------| | 
D|---------------------------------------| |
A|---------------------------------------| |
E|---------------------------------------| |
                                           |  7 times   
E|---------------------------------------| |
B|--8-8-8-8-11-11-11-11-10(x8)-----------|
G|---------------------------------------| |
D|---------------------------------------| |
A|---------------------------------------| |
E|---------------------------------------| |
                                          /

E|---------------------------------------|
B|--5-6-5h6-6----------------------------|
G|---------------------------------------|
D|---------------------------------------|
A|---------------------------------------|
E|---------------------------------------|

This is all for now, i promise make a best version ;)

*************************************************************************

INTRO 
VERSE 1
PRE-CHORUS
CHORUS 1
VERSE 2
PRE-CHORUS
CHORUS 1
CHORUS 2
CHORUS 3
CHORUS 4
CHORUS 1
CHORUS 4
PRE-CHORUS*
CHORUS 1
CHORUS 2
CHORUS 3
CHORUS 4
FINAL INSTRUMENTAL (CHORUS 4)

escribanme a mi e.mail: danik.lover.2011
=)
****************************************************************************
comments
We did not receive enough feedback on this tab! Please rate:
print report bad tab
1 2 3 4 5
I want to post or [tab]
guest
You may want to rate the tab now too:
select rating
Please do not post tabs as comments. Select "correction" instead!