Oops, an error
Loading. Please wait.

Solution bass

version 1
version 1

Whole song

Interactive

4,426 views 1 this week
1 commentread comment
1 2 3 4 5
2 more votes to show rating
add to favorites
×
Save as Personal and add changes to this tab that will be seen only by you. Learn more ›
×
You can save this tab as Personal to edit and correct it or add notes. All changes will be seen only by you. Learn more »
launch autoscroll
font size
0
reset
guitar tuner
edit
Autoscroll
slow
fast
+/-
esc
set tempo
stop
Difficulty
Hillsong United – Solution (bass tab)

Standard Tuning - EADG
I didn’t include strumming patterns in here, that’s easy enough to figure out. I’m not 
lie, I don’t have a bass in front of me right now, but I’m at work and I’m bored, so I’ll 
fix mistakes later.
At some parts, I play the 9’th fret instead of just playing the next string up on the 
fret.  That’s just how I play bass, because you can do slides over 9 frets of range 
of 2, but other than that, this tab shouldn’t be too weird for you. Enjoy, and God Bless!

Intro

G|-----------------------|
D|-----------------------|
A|-----------------------|   times a bunch
E|-9-9-9-9-9-9-9-9-------|

G|-----------------------------------------------------------|
D|-----------------------------------------------------------|
A|--------------77777777--------------99999999---------------|  X2
E|-44444444--------------77777777----------------------------|

G|-13~~~------------------------|
D|------------------------------|
A|------------------------------|
E|------------------------------|

G|-----------------------------------------------------|
D|-----------------------------------------------------|
A|----------------- -9999999999999999------------------|
E|-99999999-22222222-----------------------------------|

G|----------------------------------------------------------|
D|----------------------------------------------------------|
A|--------------77777777--------------99999999--------------|  X2
E|-44444444--------------77777777---------------------------|

G|----------------------------------------------------------|
D|----------------------------------------------------------|
A|----------------------------------------------------------|
E|-00000000-99999999-2222222222222222-----------------------|

G|----------------------------------------------------------|
D|----------------------------------------------------------|
A|----------------------------------------444444444---------|
E|-00000000-44444444-22222222-------------------------------|

G|----------------------------------------------------------|
D|----------------------------------------------------------|
A|----------------------------------------------------------|
E|-00000000/99999999\0000000000000000-----------------------|

G|-----------------------------------------------------------|
D|-----------------------------------------------------------|
A|-----------------------------------------------------------| X2
E|-44444444-00000000-99999999-22222222-----------------------|

G|----------------------------------------------------------|
D|----------------------------------------------------------|
A|----------------------------------------------------------|
E|-00000000-99999999-2222222222222222-----------------------|

G|----------------------------------------------------------|
D|----------------------------------------------------------|
A|----------------------------444444444---------------------|
E|-00000000-44444444-22222222-------------------------------|

G|----------------------------------------------------------|
D|----------------------------------------------------------|
A|----------------------------------------------------------|
E|-00000000-99999999-2222222222222222-----------------------|

G|----------------------------------------------------------|
D|----------------------------------------------------------|
A|----------------------------------------------------------|
E|-00000000-44444444-22222222-33333333----------------------|

G|-----------------------------------------------------------|
D|-----------------------------------------------------------|
A|-----------------------------------------------------------| X2
E|-44444444-00000000-99999999-22222222-----------------------|

G|-----------------------------------------------------------|
D|-----------------------------------------------------------|
A|-----------------------------------------------------------| X2
E|-44444444-00000000-99999999-22222222-----------------------|

G|-----------------------------------------------------------|
D|-----------------------------------------------------------|
A|-----------------------------------------------------------| X2
E|-44444444-00000000-99999999-22222222-----------------------|

G|---------------------------------------2-3-2--------------|
D|-----666-44--- -666-44------666-44-----------3------------|
A|----------------------------------------------------------| X2
E|-444--------000--------777---------2222-------------------|

^^^^(that’s not really how it goes, but that’s how I play it, it sounds good)

G|--------------------------------------|
D|--------------------------------------|
A|--------------------------------------|
E|-0~~~~---9~~~~---2~~~~----------------|

G|----------------------------------------------------------|
D|----------------------------------------------------------|
A|----------------------------------------444444444---------|
E|-00000000-44444444-22222222-------------------------------|


Then it just does the same stuff it did earlier and the outro bass riff is the same only 
down a string

G|-------------------------------------------------------------------|
D|-------------------------------------------------------------------|
A|------666-44-------666-44-------666-44-------1-2-1-----------------| X2
E|-444-----------000----------777-------2222---------2---------------|

            
            
Suggest correction
Creating personal tab
Creating personal tab
You can edit any tab online and save it as your Personal.

You can edit, replace or remove any tab part or add personal notes – all changes will be seen only by you.

Personal tabs can be accessed anytime from any device, even offline.
Learn more »
Give kudos to tab author, rate the tab!
1 2 3 4 5
comments
print report bad tab
1 comment total.
0 reply
crashandburn_t 92 Jun 09, 2008 01:35 PM

Wrong key.

guest
Wanna post a correction for this tab? Suggest correction