Oops, an error
Loading. Please wait.

Solution intro tab

version 1
version 1

Intro

Whole song

Interactive

7,927 views 1 this week
4 commentsread comments
1 2 3 4 5
x 4
add to favorites
×
Save as Personal and add changes to this tab that will be seen only by you. Learn more ›
×
You can save this tab as Personal to edit and correct it or add notes. All changes will be seen only by you. Learn more »
launch autoscroll
font size
0
reset
how to read this tab
guitar tuner
edit
Autoscroll
slow
fast
+/-
esc
set tempo
stop
Author
HILLSONG UNITED - SOLUTION INTRO

E------------12-12-12-12-12----------12-12-12-12-12-----------|
A---10-9-10-----------------10-9-10---------------------------|
D-------------------------------------------------------------|
G-------------------------------------------------------------|
B-------------------------------------------------------------|
E-------------------------------------------------------------|

E------------12-12-12-12-12-11-11-9-9-------------------------|
A---10-9-10---------------------------12-12-9-9---------------|
D-------------------------------------------------------------|
G-------------------------------------------------------------|
B-------------------------------------------------------------|
E-------------------------------------------------------------|

            
            
Suggest correction
Creating personal tab
Creating personal tab
You can edit any tab online and save it as your Personal.

You can edit, replace or remove any tab part or add personal notes – all changes will be seen only by you.

Personal tabs can be accessed anytime from any device, even offline.
Learn more »
comments
print report bad tab
4 comments total. Showing first comments.
+2 reply
minegahh... 41 May 12, 2008 04:13 PM



e|---------14141414---------14141414---------1414141412121010--------
B|-12p11h12---------12p11h12---------12p11h12----------------14141111

-2 reply
minegahh... 41 May 12, 2008 04:23 PM

first of it is not the into lick that is the second lick

the inro goes something like

G|-----99989-----8887--------
D|-434-------333------9------


come on guys... lets listen to these songs...

0 reply
minegahh... 41 May 12, 2008 04:34 PM

im correcting my self... it never hits the fourth and third fret on the d sring my bad... stupid minegahhh... buy other than that everything i said was right...

guest
You may want to rate the tab now too:
select rating
Wanna post a correction for this tab? Suggest correction