Oops, an error
Loading. Please wait.

Solution intro tab

version 2
version 2

Intro

Whole song

Interactive

17,789 views 1 this week
4 commentsread comments
1 2 3 4 5
x 8
add to favorites
×
Save as Personal and add changes to this tab that will be seen only by you. Learn more ›
×
You can save this tab as Personal to edit and correct it or add notes. All changes will be seen only by you. Learn more »
launch autoscroll
font size
0
reset
how to read this tab
guitar tuner
edit
Autoscroll
slow
fast
+/-
esc
set tempo
stop
Author
Difficulty
Key = E

(Intro)
E-|----------------|----------------|
B-|----------------|----------------|
G-|------9-9-9-8-9-|------8-8-8-6---|
D-|6-4-6-----------|--------------9-|
A-|----------------|9-9-9-----------|
E-|----------------|----------------|

              Or

E-|----------------|----------------|
B-|------5-5-5-4-5-|------4-4-4-----|
G-|----------------|------------6-4-|
D-|6-4-6-----------|4-4-4-----------|
A-|----------------|----------------|
E-|----------------|----------------|

 
(Pre-Chorus)  Hey now, Fill our hearts... 

E-|---------14-14-14-14-14|----------14-14-14-14-14|
B-|12-11-12---------------|-12-11-12---------------|
G-|-----------------------|------------------------|
D-|-----------------------|------------------------|
A-|-----------------------|------------------------|
E-|-----------------------|------------------------|

E-|---------14-14-14-14-14|-12-12-11-11------------|
B-|12-11-12---------------|-------------14-14-11-11|
G-|-----------------------|------------------------|
D-|-----------------------|------------------------|
A-|-----------------------|------------------------|
E-|-----------------------|------------------------|

            
            
Suggest correction
Creating personal tab
Creating personal tab
You can edit any tab online and save it as your Personal.

You can edit, replace or remove any tab part or add personal notes – all changes will be seen only by you.

Personal tabs can be accessed anytime from any device, even offline.
Learn more »
comments
print report bad tab
4 comments total. Showing first comments.
+2 reply
Emerge Rawk 10 Apr 21, 2008 09:47 AM

Hey great Tab!!! It's actualy not that hard wants you get then hang of it. It's a fun song to play.

Thanks!

-2 reply
symanoy 40 Apr 22, 2008 11:03 AM

good tab only i think its all 2 semitones lower going on this video: http://www.youtube.com/watch?v=O8qGZ6vSWvI
otherwise seems perfect

+2 reply
minegahh... 41 May 12, 2008 04:30 PM

this is the original recorded version so shut up symanoy... ha ha...

God bless and great tab'n...

guest
You may want to rate the tab now too:
select rating
Wanna post a correction for this tab? Suggest correction