Oops, an error
Loading. Please wait.

Solution bass

version 3
version 3

Whole song

Interactive

2,435 views 1 this week
2 commentsread comments
1 2 3 4 5
x 3
add to favorites
×
Save as Personal and add changes to this tab that will be seen only by you. Learn more ›
×
You can save this tab as Personal to edit and correct it or add notes. All changes will be seen only by you. Learn more »
launch autoscroll
font size
0
reset
guitar tuner
edit
Autoscroll
slow
fast
+/-
esc
set tempo
stop
Author
Difficulty
this is the live version
its played a step lower than the recorded version


Tuning: (B)EADG

"It is not a human right..."
(no Bass)

come in at ""Hey now.."
|--------------------------------------------|
|--------------------------------------------|
|------/77-99-55555555---------77777777------|
|--222----------------55555555----------55---|


|--------------------------------------------------------------|
|--------------------------------------------------------/13~--|
|------/77-99-55555555---------1212121212121212----------------|
|--222----------------------------------------------7777777----|
                                   ^twelves^

"It is not..."

|-------------------------------------------|
|-------------------------------------------|
|------------------55555555555--------------|(2x)
|--5555555-0000000--------------------------|
B--------------------------------33333------|
((he hits the low D on his fifth string but you dont have to cuz most People dont have a 
string)


Pre Chorus
|--------------------------------------------|
|--------------------------------------------|
|------/77-99-55555555---------77777777------|
|--222----------------55555555----------55---|


|--------------------------------------------------------|
|--------------------------------------------------------|
|------/77-99-55555555---------1212121212121212----------|
|--222-------------------------------------------7777777-|
                                   ^twelves^

"WHOA O OHHHHH" ((how the heck do you spell that))

Chorus

|---------------------------------------------|
|---------------------------------------------|
|---------------------------------------------|
|--101010101010--555555--000000--777777-------|

After first Chorus -
|-------------------------------------------------|
|-------------------------------------------------|
|---55555555555555-<
                

            
            
Suggest correction
Creating personal tab
Creating personal tab
You can edit any tab online and save it as your Personal.

You can edit, replace or remove any tab part or add personal notes – all changes will be seen only by you.

Personal tabs can be accessed anytime from any device, even offline.
Learn more »
Give kudos to tab author, rate the tab!
1 2 3 4 5
comments
print report bad tab
2 comments total.
0 reply
crashandburn_t 92 Jun 09, 2008 01:37 PM

There is bass at the "It is not a human right..." part.

0 reply
IAMSTIG 10 Apr 17, 2009 01:31 AM

Hey this is a great tab, it is the only one that is correct out of the three on UG. good job mate

guest
You may want to rate the tab now too:
select rating
Wanna post a correction for this tab? Suggest correction