Oops, an error
Loading. Please wait.

Take It All bass

version 1
version 1

Whole song

Interactive

24,634 views 27 this week
no commentswrite comment
1 2 3 4 5
x 12
add to favorites
×
Save as Personal and add changes to this tab that will be seen only by you. Learn more ›
×
You can save this tab as Personal to edit and correct it or add notes. All changes will be seen only by you. Learn more »
launch autoscroll
font size
0
reset
guitar tuner
edit
Autoscroll
slow
fast
+/-
esc
set tempo
stop
Author
Difficulty
This song is easy and fun. It depends what version you're playing. The "Take It All" 
the Mighty to Save CD's Intro of this song is longer and the "Bass solo" is longer to. Have fun!

[Main Riff]
G|--------------------------------------------------------------------------|
D|--------------------------------------------------------------------------|
A|---------------66---------------------------------------------------------|
E|777-777-777-66------------------------------------------------------------|

[Leading into Chorus1]
G|--------------------------------------------------------------------------|
D|--------------------------------------------------------------------------|
A|--------------------------------------------------------------------------|
E|33-33-00000000------------------------------------------------------------|

[Chorus 1]
G|--------------------------------------------------------------------------|
D|--------------------------------------------------------------------------|
A|2-2222222--------------------------------2-2222222------------------------|
E|----------2-2222222-4-4444444-0-0000000------------2-2222222-4~-----------|

[Main Riff]
G|--------------------------------------------------------------------------|
D|--------------------------------------------------------------------------|
A|---------------66---------------------------------------------------------|
E|777-777-777-66------------------------------------------------------------|

[Leading into Chorus2]
G|--------------------------------------------------------------------------|
D|--------------------------------------------------------------------------|
A|--------------------------------------------------------------------------|
E|33-33-00000000------------------------------------------------------------|

[Chorus 2](x2)
G|--------------------------------------------------------------------------|
D|--------------------------------------------------------------------------|
A|2-2222222--------------------------------2-2222222------------------------|
E|----------2-2222222-4-4444444-0-0000000------------2-2222222-4~-----------|

G|--------------------------------------------------------------------------|
D|--------------------------------------------------------------------------|
A|-2222-4444-6666-8888------------------------------------------------------|
E|--------------------------------------------------------------------------|

[1st part no bass]
[2nd part bass comes in]
G|--------------------------------------------------------------------------|
D|--------------------------------------------------------------------------|
A|-44----------44---------44-----------22222222-----------------------------|
E|---44-22-00-----44-22~-----44-22-00---------------------------------------|

["Bass Solo" - Main Riff]
G|--------------------------------------------------------------------------|
D|--------------------------------------------------------------------------|
A|---------------66---------------------------------------------------------|
E|777-777-777-66------------------------------------------------------------|

[Chorus builds in low to loud]
G|--------------------------------------------------------------------------|
D|--------------------------------------------------------------------------|
A|2-2222222--------------------------------2-2222222------------------------|
E|----------2-2222222-4-4444444-0-0000000------------2-2222222-4~-----------|

[And back to Chorus]
G|--------------------------------------------------------------------------|
D|--------------------------------------------------------------------------|
A|2-2222222--------------------------------2-2222222------------------------|
E|----------2-2222222-4-4444444-0-0000000------------2-2222222-4~-----------|

            
            
Suggest correction
Creating personal tab
Creating personal tab
You can edit any tab online and save it as your Personal.

You can edit, replace or remove any tab part or add personal notes – all changes will be seen only by you.

Personal tabs can be accessed anytime from any device, even offline.
Learn more »
comments
print report bad tab
guest
You may want to rate the tab now too:
select rating
Wanna post a correction for this tab? Suggest correction