Oops, an error
Loading. Please wait.

Take It All tab

version 3
version 3

Whole song

Interactive

3,277 views 3 this week
2 commentsread comments
1 2 3 4 5
2 more votes to show rating
add to favorites
×
Save as Personal and add changes to this tab that will be seen only by you. Learn more ›
×
You can save this tab as Personal to edit and correct it or add notes. All changes will be seen only by you. Learn more »
launch autoscroll
font size
0
reset
how to read this tab
guitar tuner
edit
Autoscroll
slow
fast
+/-
esc
set tempo
stop
Author
Artist/ Hillsong United
Album/ United We Stand
Song/ Take It All


x/muted strumming
^/bend(or bend and release)
~/vibrato
H-harmonic
h-hammer-on


Use medium gain with a bright tone throughout and a dotted eighth triplet delay 
for the lead parts.


Intro/Verse-

guitar one
------------------------------14--14--14--|
--14-14-14--12-12-12--11-11-11--11--11----|
------------------------------------------|
------------------------------------------|
------------------------------------------|
------------------------------------------|

---------------------------------12--12--12--|
--14-14-14--12-12-12--11-11-11-12--12--12----|
---------------------------------------------|
---------------------------------------------|
---------------------------------------------|
---------------------------------------------|

------------------------------14--14--14--|
--14-14-14--12-12-12--11-11-11--11--11----|
------------------------------------------|
------------------------------------------|
------------------------------------------|
------------------------------------------|

----------------------------xxxxxxxx------|
--14-14-14--12-12-12--11-11-xxxxxxxx------|
----------------------------xxxxxxxx------|hit some harmonics around the 9th fret
----------------------------xxxxxxxx------|whilst hitting muted strings
----------------------------xxxxxxxx------|
----------------------------xxxxxxxx------|


guitar two (after "I'll only ever give my all")
-------------------------------------------|
--------------------------4-4--------------|
4-4-4--4-4-4--4-4-4--3-3-------------------|
--------------------------1-1--------------|
2-2-2--2-2-2--2-2-2--1-1-------------------|
-------------------------------------------|


Pre-Chorus

guitar one
---hh--hhhhhhhh--hhhhhhhh--hhhhhhhh--hhhhhhhh-x--|
---99--77777777--99999999--77777777--99999999-x--|
---99--77777777--99999999--77777777--99999999-x--|
----------------------------------------------x--|
----------------------------------------------x--|
----------------------------------------------x--|


guitar two
-------0-0-0-0-0-0-0-0------|
-------0-0-0-0-0-0-0-0------|
-------1-1-1-1-1-1-1-1------|
--6-6--2-2-2-2-2-2-2-2------|
--6-6--2-2-2-2-2-2-2-2------|
--4-4--0-0-0-0-0-0-0-0------|


Chorus

guitar one
--2-2-2-2-2-2--2-2-2-2-2-2--4-4-4-4-4-4--0-0-0-0-0-0--|
--2-2-2-2-2-2--2-2-2-2-2-2--4-4-4-4-4-4--0-0-0-0-0-0--|
--4-4-4-4-4-4--3-3-3-3-3-3--4-4-4-4-4-4--1-1-1-1-1-1--|
--4-4-4-4-4-4--4-4-4-4-4-4--6-6-6-6-6-6--2-2-2-2-2-2--|
--2-2-2-2-2-2--4-4-4-4-4-4--6-6-6-6-6-6--2-2-2-2-2-2--|
---------------2-2-2-2-2-2--4-4-4-4-4-4--0-0-0-0-0-0--|

                                                            on second time
--2-2-2-2-2-2--2-2-2-2-2-2--4--   -------------------|
--2-2-2-2-2-2--2-2-2-2-2-2--5--   -------------------|
--4-4-4-4-4-4--3-3-3-3-3-3--6--   --8-8-8-8-8-8-8-8--|
--4-4-4-4-4-4--4-4-4-4-4-4--6--   -------------------|
--2-2-2-2-2-2--4-4-4-4-4-4--4--   --6-6-6-6-6-6-6-6--|
---------------2-2-2-2-2-2-----   -------------------|

guitar two
--2-2-2-2-2-2--2-2-2-2-2-2--4-4-4-4-4-4--0-0-0-0-0-0--|
--2-2-2-2-2-2--2-2-2-2-2-2--4-4-4-4-4-4--0-0-0-0-0-0--|
--4-4-4-4-4-4--3-3-3-3-3-3--4-4-4-4-4-4--1-1-1-1-1-1--|
--4-4-4-4-4-4--4-4-4-4-4-4--6-6-6-6-6-6--2-2-2-2-2-2--|
--2-2-2-2-2-2--4-4-4-4-4-4--6-6-6-6-6-6--2-2-2-2-2-2--|
---------------2-2-2-2-2-2--4-4-4-4-4-4--0-0-0-0-0-0--|


--2-2-2-2-2-2--2-2-2-2-2-2------------------|
--2-2-2-2-2-2--2-2-2-2-2-2------------------|
--4-4-4-4-4-4--3-3-3-3-3-3---------4~~~~----|
--4-4-4-4-4-4--4-4-4-4-4-4------------------|
--2-2-2-2-2-2--4-4-4-4-4-4--4^5^4-----------|
---------------2-2-2-2-2-2------------------|


Bridge

guitar one
------------------------------------------------|
------------------------------------------------|
--4-4-4-4--6-6-6-6--8-8-8-8--9-9-9-9------------|
------------------------------------------------|
--2-2-2-2--4-4-4-4--6-6-6-6--7-7-7-7------------|
------------------------------------------------|

--4-4--4-4--2-2--0-0--4-4--4-4--2-2--------2--------|
--5-5--4-4--2-2--0-0--5-5--4-4--2-2-----------------|
--6-6--4-4--3-3--1-1--6-6--4-4--3-3--3^4^3---3^4^3--|
--6-6--6-6--4-4--2-2--6-6--6-6--4-4-----------------|
--4-4--6-6--4-4--2-2--4-4--6-6--4-4-----------------|
-------4-4--2-2--0-0-------4-4--2-2-----------------|

--4-4--4-4--2-2--0-0-----------------------------------|
--5-5--4-4--2-2--0-0-----------------------------------|
--6-6--4-4--3-3--1-1--8-8-8-8-8-8-8-8-8-8-8-8-8-8-8-8--|
--6-6--6-6--4-4--2-2-----------------------------------|
--4-4--6-6--4-4--2-2--6-6-6-6-6-6-6-6-6-6-6-6-6-6-6-6--|
-------4-4--2-2--0-0-----------------------------------|


guitar two
-----------------------------------|
-----------------------------------|
--4-4-4-4-4-4-4-4-4-4-4-4-4-4-4-4--|
--4-4-4-4-4-4-4-4-4-4-4-4-4-4-4-4--|
--2-2-2-2-2-2-2-2-2-2-2-2-2-2-2-2--|
-----------------------------------|

-----------------0-0--------------------------------0-0--|
-----------------0-0--------------------------------0-0--|
--6-6------------1-1--6-6------------6-6------------1-1--|
--6-6--6-6--4-4--2-2--6-6--6-6--4-4--6-6--6-6--4-4--2-2--|
--4-4--6-6--4-4--2-2--4-4--6-6--4-4--4-4--6-6--4-4--2-2--|
-------4-4--2-2--0-0-------4-4--2-2-------4-4--2-2--0-0--|
                                                on second time end with this
-----------------------------------   -----|
-----------------------------------   -----|
--4-4-4-4-4-4-4-4-4-4-4-4-4-4-4-4--   --4--|
--4-4-4-4-4-4-4-4-4-4-4-4-4-4-4-4--   -----|let ring
--2-2-2-2-2-2-2-2-2-2-2-2-2-2-2-2--   --2--|
-----------------------------------   -----|


Chorus (quiet build up)

guitar one(acoustic guitar palm mutes chords...play on "take, take, take it all" refrain)
--0--
--0--
--0--
--0--let ring
--0--
--0--

repeat main chorus

            
            
Suggest correction
Creating personal tab
Creating personal tab
You can edit any tab online and save it as your Personal.

You can edit, replace or remove any tab part or add personal notes – all changes will be seen only by you.

Personal tabs can be accessed anytime from any device, even offline.
Learn more »
Give kudos to tab author, rate the tab!
1 2 3 4 5
comments
print report bad tab
2 comments total.
0 reply
shredheadted 10 Jan 20, 2011 03:49 PM

all the notes are right, I just dont know if they use all the bars that you have for this version on the album. this would be better for an unplugged version. its mostly right though. Props for having the little lead on the bridge.

0 reply
sg4ever 461 Feb 28, 2014 03:01 PM

You could be right, but I'm certainly hearing the major and minor voicing in some of those chords. They don't really play with all that much distortion and a more harmonically complete chord voicing is often times necessary to fill up space, they definitely play open E voicings the majority of the time. Then again, I was as green as a fresh pasture when I tabbed this. Thanks for the feedback (pardon my three year response).

guest
You may want to rate the tab now too:
select rating
Wanna post a correction for this tab? Suggest correction