Oops, an error
Loading. Please wait.

The Time Has Come Tab

version 1
version 1

Whole song

Interactive

22,793 views 6 this week
no commentswrite comment
1 2 3 4 5
x 3
add to favorites
launch autoscroll
font size
0
reset
how to read this tab
guitar tuner
Autoscroll
slow
fast
+/-
esc
set tempo
stop
Help us to improve Ultimate-Guitar.com Take our survey!
×
Difficulty
intermediate
This may not be exact.
So if you have any troubles, E-mail me at musician_2010@yahoo.com
The lead guitar has a 8th or 16th delay on it so watch out for it.
just play to the rhythm that he uses

     Don't start this part until the bass comes in
                   |
e|-------------------------7-7-9-9-----7-7-9-9-----------------------|
B|-10-10-10-10-10-10-10-10---------9-9---------7-7--10-9-------------|
G|-------------------------------------------------------9-----------|
D|-------------------------------------------------------------------|  X2
A|-------------------------------------------------------------------|
E|-------------------------------------------------------------------|

-----------------------------------|-7-7-7-7-7-7---------------7-|
------------------X2---------------|-------------10-10-10-10-9---|
-7-7-7-7-9-6-6-6-6-7-7-7-7-9-9-9-9-|-----------------------------|Repeat until
-----------------------------------|-----------------------------|it goes back
-----------------------------------|-----------------------------|the A or 10
-----------------------------------|-----------------------------|untill the
chords kick in
Suggest correction
Give kudos to tab author, rate the tab!
1 2 3 4 5
comments
print report bad tab
guest
You may want to rate the tab now too:
select rating
Wanna post a correction for this tab? Suggest correction