Oops, an error
Loading. Please wait.

To The Ends Of The Earth chords

32,269 views 129 this week
no commentswrite comment
1 2 3 4 5
x 7
add to favorites
×
Save as Personal and add changes to this tab that will be seen only by you. Learn more ›
×
You can save this tab as Personal to edit and correct it or add notes. All changes will be seen only by you. Learn more »
launch autoscroll
font size
0
reset
transpose
0
reset
simplify chords
display chords
guitar tuner
edit
Autoscroll
slow
fast
+/-
esc
set tempo
stop
Author
Difficulty
Unregistered
intermediate
Strumming
There is no strumming pattern for this song yet. and get +5 IQ
TO THE ENDS OF THE EARTH
Hillsong United
copyright@blinksumkorn@yahoo.com

[Intro]

Guitar 1:

Em C G D
Em C G D
Em C G D
Em C G D

Guitar 2:

e|----------------|
B|-8-7-5-3-5-7-8--|
G|----------------|
D|----------------|
A|----------------|
E|----------------|

Guitar 3:

e|----------------|
B|-12h13p12-------|
G|----------------|
D|----------------|
A|----------------|
E|----------------|

[Verse 1]

Em    C2
Love unfailing
G      D           Em C2
Overtaking my heart
G          D
You take me in
Em           C2
Finding peace again
G           D             C2
Fear is lost in all you are

[Pre-Chorus]
D
And i would give the world
                Em
To tell your story
                                 C2
'Cause I know that you've called me
                            G
I know that you've called me

D
I've lost myself for good
               C2
Within your promise
                Em
And I won't hide it
             C2
I won't hide it

[Chorus]

G
Jesus I beleive in you
   D
And I would go
       Am7
TO the ends of the earth
       C2
To the ends of the earth
       G
For you alone are the Son of God
   F2
And the world will see
               Am7
That you are God
             C2
That you are God

[Middle Intro]

Guitar 1:

Em C G D
Em C G D

Guitar 2:

e|----------------|
B|-8-7-5-3-5-7-8--|
G|----------------|
D|----------------|
A|----------------|
E|----------------|

Guitar 3:

e|--0------0-0-----0----|
B|-3-5-5--3-3-5-5-3-5---|
G|----------------------|
D|----------------------|
A|----------------------|
E|----------------------|

[Verse]

Em    C2
Love unfailing
G      D           Em C2
Overtaking my heart
G          D
You take me in
Em           C2
Finding peace again
G           D             C2
Fear is lost in all you are

[Pre-Chorus]
D
And i would give the world
                Em
To tell your story
                                 C2
'Cause I know that you've called me
                            G
I know that you've called me


Guitar 3:

e|------------|
B|-13-12-10-8-|
G|------------|
D|------------|
A|------------|
E|------------|

D
I've lost myself for good
               C2
Within your promise
                Em
And I won't hide it
             C2
I won't hide it

[Chorus]
G
Jesus I believe in you
   D
And I would go
       Am7
TO the ends of the earth
       C2
To the ends of the earth
       G
For you alone are the Son of God
   F2
And the world will see
               Am7
That you are God
             C2
That you are God

[Solo]
e|---------------------------------------------------------------------|
B|---------------7-8--------------8-10s12-12^13r12--10-----------------|
G|-9-7-9--9--9-9-----7~-------7-9--------------------------------------|
D|-----------------------7-9-------------------------------------------|
A|---------------------------------------------------------------------|
E|---------------------------------------------------------------------|

e|-12h15-12h14.--10h12-----------------------------------------------|
B|---------------------10h12-10-8-10-----8p7-10p8-12p10-13p12--15-15-|
G|-----------------------------------7-9-----------------------------|
D|-------------------------------------------------------------------|
A|-------------------------------------------------------------------|
E|-------------------------------------------------------------------|

[Chorus]
G
Jesus I believe in you
   D
And I would go
       Am7
TO the ends of the earth
       C2
To the ends of the earth
       G
For you alone are the Son of God
   F2
And the world will see
               Am7
That you are God
             C2
That you are God

G
Jesus I believe in you
   D
And I would go
       Am7
TO the ends of the earth
       C2
To the ends of the earth
       G
For you alone are the Son of God
   F2
And the world will see
               Am7
That you are God
             C2
That you are God

G
Jesus I believe in you
   D
And I would go
       Am7
TO the ends of the earth
       C2
To the ends of the earth
       G
For you alone are the Son of God
   F2
And the world will see
               Am7
That you are God
             C2
That you are God

[Ending]

Guitar 1:

Em C G D

Guitar 2:

e|----------------|
B|-8-7-5-3-5-7-8--|
G|----------------|
D|----------------|
A|----------------|
E|----------------|

Guitar 3:

e|--0------0-0-----0----|
B|-3-5-5--3-3-5-5-3-5---|
G|----------------------|
D|----------------------|
A|----------------------|
E|----------------------|

Psalm 150
 1 Praise the LORD.
       Praise God in his sanctuary;
       praise him in his mighty heavens.

 2 Praise him for his acts of power;
       praise him for his surpassing greatness.

 3 Praise him with the sounding of the trumpet,
       praise him with the harp and lyre,

 4 praise him with tambourine and dancing,
       praise him with the strings and flute,

 5 praise him with the clash of cymbals,
       praise him with resounding cymbals.

 6 Let everything that has breath praise the LORD.
       Praise the LORD.

************************************

| ~  prolong
| s  slide
| ^  bend
| r  release
| p  pull off
| h  hammer on
| .  cut

************************************

            
            
Suggest correction
Creating personal tab
Creating personal tab
You can edit any tab online and save it as your Personal.

You can edit, replace or remove any tab part or add personal notes – all changes will be seen only by you.

Personal tabs can be accessed anytime from any device, even offline.
Learn more »
comments
print report bad tab
guest
Wanna post a correction for this tab? Suggest correction