Oops, an error
Loading. Please wait.

Touch The Sky tab

version 1
version 1

Whole song

  • I did take this from andychristianguitar.weebly.co... Show more
  • From the acoustic album "Of Dirt and Grace".
7,928 views 30 this week
8 commentsread comments
1 2 3 4 5
x 19
add to favorites
×
Save as Personal and add changes to this tab that will be seen only by you. Learn more ›
×
You can save this tab as Personal to edit and correct it or add notes. All changes will be seen only by you. Learn more »
launch autoscroll
font size
0
reset
how to read this tab
guitar tuner
edit
Autoscroll
slow
fast
+/-
esc
set tempo
stop
-------------------------------------------------------------------------------
                             Touch the Sky - Hillsong United
-------------------------------------------------------------------------------
Tabbed by:
E-mail: hanulj.kim@gmail.com
Hey guys, Josh here. Just wanted to tab out this new song, Touch the Sky by Hillsong United, since it's 
come to be very popular. I would love to hear some feedback, so rate/comment!

Tuning: Standard 
CAPO 5.
REMEMBER, WHEN READING THIS TAB, IT WILL BE RELEVANT TO THE CAPO. (If it says 2, it will really be 7)

[Verse 1]
   Lay low.

[Chorus]
(1st Time)
(Recommend to finger pick)
(The "X" means to slap the strings to mute the stings and make a sort of percussion sound, like what 
fingerstyle guitarists do)
        
e|---------------------------------------------------------------------------|
B|----------------2--2-X--2--X---5--5-X--5--X---5--5-X--5--X-----------------|
G|--1--1-X-1--X---2--2-X--2--X---4--4-X--4--X---6--6-X--6--X-----------------|
D|--2--2-X-2--X---2--2-X--2--X---2--2-X--2--X---6--6-X--6--X-----------------|
A|--2--2-X-2--X--------------------------------------------------------------|
E|---------------------------------------------------------------------------|
                                              Let Ring~~~~~~~~~~~~~
e|---------------------------------------------------------------------------|
B|----------------2--2-X--2--X---5--5-X--5--X---4----------------------------|
G|--1--1-X-1--X---2--2-X--2--X---4--4-X--4--X---4----------------------------|
D|--2--2-X-2--X---2--2-X--2--X---2--2-X--2--X---4----------------------------|
A|--2--2-X-2--X--------------------------------------------------------------|   (Listen closely,you will
E|---------------------------------------------------------------------------|hear this part)

[Instrumental]
(1st time)
Let Ring~~~~~~~~~~~~~~~~~~~~~~~~~~~~~~~~~~~~~~~~~~~~~~~~~~~~~~~~~~~~~~~~~~~~~
e|-0---0---0---2---5---5---5---5-4-2---2---2---0---1/7---7---7---5---4-------|
B|---0---0---0---0---0---0---0-------0---0---0---0-----0---0---0---0---------|
G|---------------------------------------------------------------------------|
D|---------------------------------------------------------------------------|
A|---------------------------------------------------------------------------|
E|---------------------------------------------------------------------------|

[Verse 2]
(Same as CHORUS (1st time)
e|---------------------------------------------------------------------------|
B|----------------2--2-X--2--X---5--5-X--5--X---5--5-X--5--X-----------------|
G|--1--1-X-1--X---2--2-X--2--X---4--4-X--4--X---6--6-X--6--X-----------------|
D|--2--2-X-2--X---2--2-X--2--X---2--2-X--2--X---6--6-X--6--X-----------------|
A|--2--2-X-2--X--------------------------------------------------------------|
E|---------------------------------------------------------------------------|(x2)

[Chorus]
(2nd time)
Just throw this in whenever you feel necessary. (Listen to the song a couple times, get an idea)
Palm Mute~~~~
e|---------------------------------------------------------------------------|
B|---------------------------------------------------------------------------|
G|---------------------------------------------------------------------------|
D|---2--4--2-----------------------------------------------------------------|
A|---------------------------------------------------------------------------|
E|---------------------------------------------------------------------------|

[Instrumental]
(2nd time)/BRIDGE
Let Ring~~~~~~~~~~~~~~~~~~~~~~~~~~~~~~~~~~~~~~~~~~~~~~~~~~~~~~~~~~~~~~~~~~~~~
e|-0---0---0---2---5---5---5---5-4-2---2---2---0---1/7---7---7---5-----------|
B|---0---0---0---0---0---0---0-------0---0---0---0-----0---0---0---0---------|
G|---------------------------------------------------------------------------|
D|---------------------------------------------------------------------------|
A|---------------------------------------------------------------------------|
E|---------------------------------------------------------------------------|

Let Ring~~~~~~~~~~~~~~~~~~~~~~~~~~~~~~~~~~~~~~~~~~~~~~~~~~~~~~~~~~~~~~~~~~~~~
e|-4---4---4---2---5---5---5---5-4-2---2---2---0---1/7---7---7---5-----------|
B|---0---0---0---0---0---0---0-------0---0---0---0-----0---0---0---0---------|
G|---------------------------------------------------------------------------|
D|---------------------------------------------------------------------------|
A|---------------------------------------------------------------------------|
E|---------------------------------------------------------------------------|(x3)

[Chorus]
(3rd time):
    Lay low. Let the other instruments build up
[Chorus]
(4th time)/BRIDGE (2nd time):
Play the chords
E/G#    A    Bsus4    C#m  
E/G#    A    Bsus4    B
E/G#    A    Bsus4    C#m
E/G#    A    Bsus4    C#m
e|---0-----0------2-----4-----2----------------------------------------------|
B|---0-----2------5-----5-----4----------------------------------------------|
G|---1-----2------4-----6-----4----------------------------------------------|
D|---2-----2------2-----6-----4----------------------------------------------|
A|---2-----0------2-----4-----2----------------------------------------------|
E|---4-----X------X-----X-----X----------------------------------------------|
   E/G#    A   Bsus4   C#m    B

[Tag]
e|---4-----2-5------------0--------------------------------------------------|
B|---------------------------------------------------------------------------|
G|---------------------------------------------------------------------------|
D|---------------------------------------------------------------------------|
A|---------------------------------------------------------------------------|
E|---------------------------------------------------------------------------|

TONE:
CHORUS (1st time)- Clean, dry.
INSTRUMENTAL (1st time)- Clean, Quietish dotted eighth note delay, 2-5 repeats
VERSE 2- Clean, dry
CHORUS (2nd Time)- Clean, Loud quarter note/dotted eighth note delay (forgot which one, experiment). 
About 1-4 repeats.
INSTRUMENTAL (2nd time)/ BRIDGE (1st time)- Clean, Quietish dotted eighth note delay, 2-5 repeats
CHORUS (4th time)/ BRIDGE (2nd time)- Dirty. Kick some overdrive on. 
TAG- Clean, Loud Dotted eighth note delay, 4-6 repeats

Remember, this is the tone that I am using. Just some guidelines for your tone and your sound. 

Hope this helped! Good luck and God Bless!



************************************

| /  Slide up
| ~  Vibrato

************************************

            
            
Suggest correction
Creating personal tab
Creating personal tab
You can edit any tab online and save it as your Personal.

You can edit, replace or remove any tab part or add personal notes – all changes will be seen only by you.

Personal tabs can be accessed anytime from any device, even offline.
Learn more »
comments
print report bad tab
8 comments total. Showing first comments. show 1 bad comment
+4 reply
jjkforeman1 75 Jul 08, 2015 06:43 AM

So stupid helpful man! This tab is spot on!

+4 reply
hanuljkim 62 Sep 05, 2015 07:00 PM

oh, sorry dude. follow your tab then, don't insult my tab. i was just trying to help out the church. and dont advertise your own tab bceause youre submitting tabs for your own fame, and not for God's fame.

guest
You may want to rate the tab now too:
select rating
Wanna post a correction for this tab? Suggest correction