Oops, an error
Loading. Please wait.

What The World Will Never Take tab

version 2
version 2

Whole song

Interactive

5,461 views 1 this week
1 commentread comment
1 2 3 4 5
3 more votes to show rating
add to favorites
×
Save as Personal and add changes to this tab that will be seen only by you. Learn more ›
×
You can save this tab as Personal to edit and correct it or add notes. All changes will be seen only by you. Learn more »
launch autoscroll
font size
0
reset
how to read this tab
guitar tuner
edit
Autoscroll
slow
fast
+/-
esc
set tempo
stop
Author
Difficulty
----------------------------------------------------------------------------
                What the world will never take - Hillsong United
----------------------------------------------------------------------------
Tabbed by: Colin Pomory
Email: colin.pomory757@gmail.com

Don't know if it's perfect please comment with your corrections or if you want to 
something.

Tuning: standard

INTRO & VERSE

e|---------------------------------------------------------------------------|
B|---------------------------------------------------------------------------|
G|---------------------------------------------------------------------------|
D|----------7^6^667----------------------------------------------------------|
A|---------------------------------------------------------------------------|
E|----5-5--------------------------------------------------------------------| X2

e|---------------------------------------------------------------------------|
B|---------------------------------------------------------------------------|
G|---------------------------------------------------------------------------|
D|----------7^6^667----------------------------------------------------------|
A|----5-5--------------------------------------------------------------------|
E|---------------------------------------------------------------------------| X2
X2

BRIDGE

e|---------------------------------------------------------------------------|
B|---------------------------------------------------------------------------|
G|-------------------6-6-4-6-6-4-6-6-4-6-6b7-4-------------------------------|
D|---------------------------------------------------------------------------|
A|---------------------------------------------------------------------------|
E|---------------------------------------------------------------------------| X2

CHORUS
strum these chords
-----------------
A D F#m Bsus D A

F#m Bsus D A
------------------

INSTRUMENTAL

e|--------------------------------------------------------------------------|
B|--------10-----10--10------10--12-12b13-10--------------------------------|
G|---11-11--11-11--11---10-10-----------------------------------------------|
D|--------------------------------------------------------------------------|
A|--------------------------------------------------------------------------|
E|--------------------------------------------------------------------------|

e|---------------------------------------------------------------------------|
B|---------------------------------------------------------------------------|
G|------6---6-6----8---8-8---------------------------------------------------|
D|---7-7-7-7-7--9-9-9-9-9----------------------------------------------------|
A|---------------------------------------------------------------------------|
E|---------------------------------------------------------------------------| X2


| /  slide up
| \  slide down
| h  hammer-on
| p  pull-off
| ~  vibrato
| +  harmonic
| ^  Mute note
| b  bend
============================================================================

            
            
Suggest correction
Creating personal tab
Creating personal tab
You can edit any tab online and save it as your Personal.

You can edit, replace or remove any tab part or add personal notes – all changes will be seen only by you.

Personal tabs can be accessed anytime from any device, even offline.
Learn more »
Give kudos to tab author, rate the tab!
1 2 3 4 5
comments
print report bad tab
1 comment total.
0 reply
i_follw_the_son 31 Jul 10, 2008 07:29 PM

hey this is the tabber, this is my first tab so i don't know if its good but please take the time to comment with what you think about it

guest
You may want to rate the tab now too:
select rating
Wanna post a correction for this tab? Suggest correction