Oops, an error
Loading. Please wait.

Your Name High tab

version 1
version 1

Whole song

35,496 views 6 this week
3 commentsread comments
1 2 3 4 5
x 13
add to favorites
×
Save as Personal and add changes to this tab that will be seen only by you. Learn more ›
×
You can save this tab as Personal to edit and correct it or add notes. All changes will be seen only by you. Learn more »
launch autoscroll
font size
0
reset
how to read this tab
guitar tuner
edit
Autoscroll
slow
fast
+/-
esc
set tempo
stop
Author
Difficulty
Your Name High
artist: Hillsongs
tabbed by ferd tobats o_O
email: chibu_boi@yahoo.com
legend:
h- hammer
b- bend
x- dead string


intro: F#m-A-D-A-E/G#m

e|--9--12-14-12-9--4----| (4X)
B|--10-14-15-14-10-5----|
G|----------------------|
D|----------------------|
A|----------------------|
E|----------------------|

play this part for introduction and chorus: 
e|-5-0-5-7-0-7-9-0-9-12-0-12-14-0-12-0-| (4X)
strum:
e|--------|(4X)
B|---10---|
G|----9---|
D|--------|
A|--------|
E|--------|

verses: F#m-A-F#m-A-D-F#m-E
        F#m A F#m              A-D-F#m-E
e|---------9-------------9-----|-9-----------10-9--4----|
B|-7h9-7h9--10--7h9-7-10---10--|---10-9h10-7-10-10-5----|
G|-----------------------------|------------------------|
D|------------------------------------------------------|
A|------------------------------------------------------|
E|------------------------------------------------------|
guitar 2:A-D-F#m-E
e|------------------10---9-9-9-9-444-------------|
B|--9h10-9h10b-9-7--10--10101010-555-------------|
G|-----------------------------------------------|
D|-----------------------------------------------|
A|-----------------------------------------------|
E|-----------------------------------------------|
    : F#m-A-F#m-A-D-F#m-E-D
        F#m A F#m                       A-D-F#m-E
e|---9--9--9--9---------------9--9--9---|-9-----------10--9--4--5--|
B|-10-10-10-10-10-9h10-9h10-10-10-10-10-|---10-9h10-7-10--10-5--3--|
G|--------------------------------------|--------------------------|
D|-----------------------------------------------------------------|
A|-----------------------------------------------------------------|
E|-----------------------------------------------------------------|
guitar 2:A-D-F#m-E-D
e|------------------10---9-9-9-9-444-555555------|
B|--9h10-9h10b-9-7--10--10101010-555-333333------|
G|-----------------------------------222222------|
D|-----------------------------------------------|
A|-----------------------------------------------|
E|-----------------------------------------------|

chorus: A-E-F#m-E-D-F#m-A-D
verse 2:
chorus:

interlude:

e|-------------------------------| (4X)
B|-------------------------------|
G|------------------9-9-11-9-----|
D|--7-7-9-9-11-11----------------|
A|-------------------------------|
E|-------------------------------|

bridge:
e|----------------------------|
B|---7--9--10--9--7-5---------|
G|----------------------------|
D|----------------------------|
A|----------------------------|
E|----------------------------|

e|----------------------------|
B|----------------------------|
G|--11-13--14--13-------------|
D|--x---x---x---x-------------|
A|--9--11--12--11-------------|
E|----------------------------|

e|----------------------------|
B|----------------------------|
G|--11-13--14--16-------------|
D|--x---x---x---x-------------|
A|--9--11--12--14-------------|
E|----------------------------|

that's all guys God Bless Us!!!

            
            
Suggest correction
Creating personal tab
Creating personal tab
You can edit any tab online and save it as your Personal.

You can edit, replace or remove any tab part or add personal notes – all changes will be seen only by you.

Personal tabs can be accessed anytime from any device, even offline.
Learn more »
comments
print report bad tab
3 comments total.
+3 reply
basistah 31 Aug 08, 2009 11:25 PM

...how did u get the sound? nice!!! pretty close for the verses,.thankz dude

0 reply
bellofsilence 10 Sep 20, 2009 08:11 PM

meron ka bang tab ng bass nyan?
'di kc aq sure sa verse nun eh,.
ok 'un gawa mo hirap lang matimingan,

-1 reply
gatecrusher 1,137 Sep 20, 2009 08:22 PM

.,bro ung bass nun sa verse 1 kasi hugot ka lang mula f# tapos D-F#-E... di ko pa kasi kinakapa yung sa bass cguro soon baka mag-submit ako, thank you sa pag add

guest
You may want to rate the tab now too:
select rating
Wanna post a correction for this tab? Suggest correction