Oops, an error
Loading. Please wait.

Forever Reign Tab

109 views 9 this week
no commentswrite comment
1 2 3 4 5
3 more votes to show rating
add to favorites
launch autoscroll
font size
0
reset
how to read this tab
guitar tuner
Autoscroll
slow
fast
+/-
esc
set tempo
stop
Help us to improve Ultimate-Guitar.com Take our survey!
×
Author
This is how they played the intro when Hillsong played live, it sounds better if you have the
Boss Delay DM-2W or some other delay, but its fine if you don't!


[Intro]

e|------------------------------------------------------|
B|------------------------------------------------------|
G|----7/9~----------------------------------------------|
D|--------9~--10~---------------------------------------|
A|------------------------------------------------------|
E|------------------------------------------------------|(x4)
        
 You have to time it with the words for verse

[Verse 1]

e|------------------------------------------------------|
B|------------8~------------8~--------8~--------8~------|
G|-------9-------------9---------7---------7------------|
D|----10------------10--------9----------9--------------|
A|------------------------------------------------------|
E|------------------------------------------------------|(x2)


[Intro]

e|------------------------------------------------------|
B|------------------------------------------------------|
G|----7/9~----------------------------------------------|
D|--------9~--10~---------------------------------------|
A|------------------------------------------------------|
E|------------------------------------------------------|


[Verse 2]

e|----8~-----7~------------------------------------------|
B|------8~------8~---------------------------------------|
G|-------------------------------------------------------|
D|-------------------------------------------------------|
A|-------------------------------------------------------|
E|-------------------------------------------------------|(x2)

for the pre-chorus you strum this eight times (just too lazy to put it down there lol:|)

e|-------8~--------------------------------------------------|
B|-------8~--------------------------------------------------|
G|----5~-----------------------------------------------------|
D|-----------------------------------------------------------|
A|-----------------------------------------------------------|
E|-----------------------------------------------------------|

for the first chorus you don't play anything
for the verse, the first time you play it you do it once,
second time you play it, you play it one after another.
If you listen to the song you'll understand


[Verse 3]

e|-----------------------------------------------------------------|
B|--------8-----------8----------8--------8----------8---------8---|
G|----5---------4----------5---------5---------4---------4---------|
D|------5---------5----------5---------5---------5---------5-------|
A|-----------------------------------------------------------------|
E|-----------------------------------------------------------------|

(then you play the pre-chorus again into the chorus)


[Chorus 2]


e|---8--8--8--8--10--10---10---10----8---8--8---8----10---10-----|
B|----8--8--8--8---8----8----8----8----8--8---8---8-----8----8---|
G|---------------------------------------------------------------|
D|---------------------------------------------------------------|
A|---------------------------------------------------------------|
E|---------------------------------------------------------------|


e|----7---7----8---8---8---8---8---8---7---7-------------|
B|------8---8----8---8---8---8---8---8---8---8-----------|
G|-------------------------------------------------------|
D|-------------------------------------------------------|
A|-------------------------------------------------------|
E|-------------------------------------------------------|


e|----8---8---8---8---8---8---7---7---8~-----------------|
B|------8---8---8---8---8---8---8---8--------------------|
G|-------------------------------------------------------|
D|-------------------------------------------------------|
A|-------------------------------------------------------|
E|-------------------------------------------------------|


[Bridge]

first time do as it is, second third a fourth time you can pick it however you like

e|-------5~----------------------------------------------|
B|-------5~--5h6--6--5---------8-------------------------|
G|-------5~------------5~--5/7---------------------------|
D|-------------------------------------------------------|
A|-------------------------------------------------------|
E|-------------------------------------------------------|(x4)


then you play the chorus(see above)

then the bridge again twice then you pick the e and b string on the eighth fret for 4x

This took me a long time to write so I hope you enjoyed it & please rate and comment!


************************************

| h  Hammer-on
| /  Slide up
| ~  Vibrato

************************************
Suggest correction
Give kudos to tab author, rate the tab!
1 2 3 4 5
comments
print report bad tab
guest
You may want to rate the tab now too:
select rating
Wanna post a correction for this tab? Suggest correction