Oops, an error
Loading. Please wait.

Jesus I Need You bass

229 views 18 this week
no commentswrite comment
1 2 3 4 5
3 more votes to show rating
add to favorites
×
Save as Personal and add changes to this tab that will be seen only by you. Learn more ›
×
You can save this tab as Personal to edit and correct it or add notes. All changes will be seen only by you. Learn more »
launch autoscroll
font size
0
reset
guitar tuner
edit
Autoscroll
slow
fast
+/-
esc
set tempo
stop
About this tab version
I did not see an accurate bass tab. Was this info helpful? Yes No
*Very easy song, but it is tastefully done because the bass plays so nicely and complements the drums. Pay
close attention. While this song is technically easy grooving with the drummer can pose challenges if not
paying attention.*

(0:40-1:04) "And Jesus, I need you..."

G|---------------------------------------------------------------------------|
D|---------------------------------------------------------------------------|
A|----5r----7r--9r--5r-----9r--7r--------------------------------------------|
E|-5r----5r-------------5r---------------------------------------------------|

(1:04-1:29 ) "Beauty for ashes..." For strumming/picking pattern, listen closely to drums and follow
G|-------------------------------------------------------------------------------------------------------|
D|-------------------------------------------------------------------------------------------------------|
A|--------------5-5-5-5-5-5-------------7-7-7-7-7-7-9-9-9-9-9-9-5-5-5-5-5-5-------------7-7-7-7-7--------|
E|-5-5-5-5-5-5--------------5-5-5-5-5-5-------------------------------------5--5-5-5-5-5-----------------|


(1:09-2:19) "Jesus I need you..." (Much similar strumming/pick pattern as previous part)

G|----------------------------------------------------------------------------|
D|----------------------------------------------------------------------------|
A|-------------5-5-5-5-5-5-------------7-7-7-7-7-7----------------------------|
E|-5-5-5-5-5-5-------------5-5-5-5-5-5----------------------------------------|

G|---------------------------------------------------------------------------|
D|---------------------------------------------------------------------------|
A|-9-9-9-9-9-9--5-5-5-5-5-5-----------9-9-7-7-7-7-7-7------------------------------|
E|--------------------------5-5-5-5--------------------------------------------------|


 Bridge(2:19-3:45) (Same chords as the "Beauty to ashes" part, but listen to kick drum because this is a
                    driving part and the bass pattern changes to reflect that)

 Chorus as Outro (3:45-4:38)
 Bridge (4:38-out) No Bass, but feel it out and play if appropriate.



************************************

| x   Dead note
| g   Grace note
| (n) Ghost note
| h   Hammer-on
| p   Pull-off
| r   Release
| >   Accented note
| t   Tapping
| b   Bend
| br  Bend release
| pb  Pre-bend
| pbr Pre-bend release
| /   Slide up
| \   Slide down
| ~   Vibrato
| s   Slap
| P   Pop
| PM  Palm mute
| TR  Trill
| N   Tremolo

************************************

            
            
Suggest correction
Creating personal tab
Creating personal tab
You can edit any tab online and save it as your Personal.

You can edit, replace or remove any tab part or add personal notes – all changes will be seen only by you.

Personal tabs can be accessed anytime from any device, even offline.
Learn more »
Give kudos to tab author, rate the tab!
1 2 3 4 5
comments
print report bad tab
guest
You may want to rate the tab now too:
select rating
Wanna post a correction for this tab? Suggest correction