Oops, an error
Loading. Please wait.

This I Believe The Creed bass

208 views 3 this week
no commentswrite comment
1 2 3 4 5
1 last vote to show rating
add to favorites
×
Save as Personal and add changes to this tab that will be seen only by you. Learn more ›
×
You can save this tab as Personal to edit and correct it or add notes. All changes will be seen only by you. Learn more »
launch autoscroll
font size
0
reset
guitar tuner
edit
Autoscroll
slow
fast
+/-
esc
set tempo
stop
Author
Difficulty
Tempo: 71
Key: C
Time: 4/4

[Intro 1]

  (No Bass)
G|----------------|
D|----------------|
A|----------------|
E|----------------|


[Verse 1]

  (No Bass)
G|----------------|
D|----------------|
A|----------------|
E|----------------|


[Chorus 1]

G|----------------|----------------|----------------|----------------|
D|----------------|3-----------5---|7---------------|3---------------|
A|3-----------5---|----------------|----------------|----------------|
E|----------------|----------------|----------------|----------------|

G|----------------|----------------|----------------|----------------|
D|----------------|3-----------5---|7---------------|3-------5-------|
A|3-----------5---|----------------|----------------|----------------|
E|----------------|----------------|----------------|----------------|


[Intro 2]

G|----------------|----------------|----------------|----------------|
D|----------------|----------------|----------------|----------------|
A|----------------|----------------|----------------|----------------|
E|1-----------5---|3-----------0---|1-----------5---|3-----------0---|


[Verse 2]

G|----------------|----------------|----------------|----------------|
D|----------------|----------------|----------------|----------------|
A|----------------|----------------|----------------|----------------|
E|1-----------5---|3-----------0---|1-----------5---|3-----------0---|

G|----------------|----------------|--------------------------------|
D|----------------|----------------|--------------------------------|
A|----------------|----------------|--------------------------------|
E|1-----------5---|3-----------0---|1---1---1---1---1---1---1---1---|

G|--------------------------------|
D|--------------------------------|
A|--------------------------------|
E|3---3---3---3---3---3---3-3-3-3-|


[Chorus 2]

G|----------------|----------------|----------------|----------------|
D|----------------|----------------|----------------|----------------|
A|3-----------5---|----------------|----------------|----------------|
E|----------------|1-----------3---|5---------------|1---------------|

G|----------------|----------------|----------------|
D|----------------|----------------|----------------|
A|3-----------5---|----------------|----------------|
E|----------------|1-----------3---|5---------------|

G|--------------------------------|--------------------------------|
D|--------------------------------|--------------------------------|
A|--------------------------------|3---3---3---3---3---3--/7-7-7-7-|
E|1---1---1---1---3---3---3---3---|--------------------------------|


[Bridge]

G|--------------------------------|--------------------------------|--------------------------------|
D|--------------------------------|--------------------------------|--------------------------------|
A|--------------------------------|--------------------------------|--------------------------------|
E|1---1---1---1---5---5---5---5---|3---3---3---3---0---0---0---0---|1---1---1---1---5---5---5---5---|

G|--------------------------------|--------------------------------|--------------------------------|
D|--------------------------------|--------------------------------|--------------------------------|
A|--------------------------------|--------------------------------|--------------------------------|
E|3---3---3---3---0---0---0---0---|1---1---1---1---1---1---1---1---|3---3---3---3---3---3---3---3---|

G|--------------------------------|--------------------------------|--------------------------------|
D|--------------------------------|--------------------------------|--------------------------------|
A|3---3---3---3---3---3---3---3---|3---3---3---3---3---3--/7-7-7-7-|--------------------------------|
E|--------------------------------|--------------------------------|1---1---1---1---5---5---5---5---|

G|--------------------------------|--------------------------------|--------------------------------|
D|--------------------------------|--------------------------------|--------------------------------|
A|--------------------------------|--------------------------------|--------------------------------|
E|3---3---3---3---0---0---0---0---|1---1---1---1---5---5---5---5---|3---3---3---3---0---0---0---0---|

G|--------------------------------|--------------------------------|--------------------------------|
D|--------------------------------|--------------------------------|--------------------------------|
A|--------------------------------|--------------------------------|3---3---3---3---3---3---3---3---|
E|1---1---1---1---1---1---1---1---|3---3---3---3---3---3---3---3---|--------------------------------|

G|--------------------------------|----------------|
D|--------------------------------|----------------|
A|3---3---3---3---3---3---3---3---|3---------------|
E|--------------------------------|----------------|


[Chorus 3]
 
  (No Bass..........................................................)
G|----------------|----------------|----------------|----------------|
D|----------------|----------------|----------------|----------------|
A|----------------|----------------|----------------|----------------|
E|----------------|----------------|----------------|----------------|

G|--------------------------------|--------------------------------|--------------------------------|
D|--------------------------------|--------------------------------|--------------------------------|
A|3---3---3---3---3---3---5---5---|--------------------------------|--------------------------------|
E|--------------------------------|1---1---1---1---1---1---3---3---|5---5---5---5---5---5---5---5---|

G|--------------------------------|--------------------------------|--------------------------------|
D|--------------------------------|--------------------------------|--------------------------------|
A|--------------------------------|3-------------------3-3-5-------|--------------------------------|
E|1-1-1-1-1-1-1-1-3-3-3-3-3-3-3-3-|--------------------------------|1-------------------1-1-3-------|

G|--------------------------------|--------------------------------|--------------------------------|
D|--------------------------------|--------------------------------|--------------------------------|
A|--------------------------------|----------------------3---------|3-------------------3-3-5-------|
E|5-------------------5-5---------|1-------------------1---1-------|--------------------------------|

G|--------------------------------|--------------------------------|--------------------------------|
D|--------------------------------|--------------------------------|--------------------------------|
A|--------------------------------|--------------------------------|--------------------------------|
E|1-------------------1-1-3-------|5-------------------5-5---------|1-------1-------3-3-3-3-3-3-3-3-|

G|--------------------------------|--------------------------------|----------------|
D|--------------------------------|--------------------------------|----------------|
A|--------------------------------|--------------------------------|----------------|
E|5---5---5---5---5---5---5---5---|1---1---1---1---3---3---3---3---|5---------------|


[Chorus 4]

  (No Bass)
G|----------------|
D|----------------|
A|----------------|
E|----------------|


[Outro]

G|--------------------------------|--------------------------------|--------------------------------|
D|--------------------------------|--------------------------------|--------------------------------|
A|3-3-3-3-3-3-3-3-3-3-3-3-3-3-3-3-|3-3-3-3-3-3-3-3-3-3-3-3-3-3-3-3-|3-3-3-3-3-3-3-3-3-3-3-3-5-5-5-5-|
E|--------------------------------|--------------------------------|--------------------------------|

G|--------------------------------|--------------------------------|--------------------------------|
D|--------------------------------|--------------------------------|--------------------------------|
A|--------------------------------|--------------------------------|--------------------------------|
E|1-1-1-1-1-1-1-1-1-1-1-1-3-3-3-3-|5-5-5-5-5-5-5-5-5-5-5-5-5-5-5-5-|1-1-1-1-1-1-1-1-1-1-1-1-1-1-1-1-|

G|--------------------------------|--------------------------------|--------------------------------|
D|--------------------------------|--------------------------------|--------------------------------|
A|3-3-3-3-3-3-3-3-3-3-3-3-5-5-5-5-|--------------------------------|--------------------------------|
E|--------------------------------|1-1-1-1-1-1-1-1-1-1-1-1-3-3-3-3-|5-5-5-5-5-5-5-5-5-5-5-5-5-5-5-5-|

G|--------------------------------|----------------|----------------|----------------|
D|--------------------------------|----------------|----------------|----------------|
A|--------------------------------|3---3---3---5---|----------------|----------------|
E|1-1-1-1-1-1-1-1-3-3-3-3-3-3-3-3-|----------------|1---1---1---3---|5---5---5---5---|

G|----------------|----------------|----------------|----------------|----------------|
D|----------------|----------------|----------------|----------------|----------------|
A|----------------|3---3---3---5---|----------------|----------------|----------------|
E|1---1---1---1---|----------------|1---1---1---3---|5---5---5---5---|1---1---3---3---|

G|----------------|----------------|
D|----------------|----------------|
A|----------------|----------------|
E|5---5---5---5---|1-1-1-1-3-3-3-3-|


******************

/  Slide Up

******************

            
            
Suggest correction
Creating personal tab
Creating personal tab
You can edit any tab online and save it as your Personal.

You can edit, replace or remove any tab part or add personal notes – all changes will be seen only by you.

Personal tabs can be accessed anytime from any device, even offline.
Learn more »
Give kudos to tab author, rate the tab!
1 2 3 4 5
comments
print report bad tab
guest
You may want to rate the tab now too:
select rating
Wanna post a correction for this tab? Suggest correction