Oops, an error
Loading. Please wait.

What A Beautiful Name Tab

181 views 9 this week
no commentswrite comment
1 2 3 4 5
3 more votes to show rating
add to favorites
launch autoscroll
font size
0
reset
how to read this tab
guitar tuner
Autoscroll
slow
fast
+/-
esc
set tempo
stop
Help us to improve Ultimate-Guitar.com Take our survey!
×
Author
Difficulty
intermediate
About this tab version
This Tab contains both guitar parts tabbed out and also the Chords/L. Was this info helpful? Yes No
Guitar 1:

[Verse 1] No guitar

[Chorus] No guitar

[Verse 2]
    D......  G  Bm   A/C# Bm     A        D         G      Bm     A
e|----|----|-3-----|----|-----2---------|-----0---|-----3--3p2---|-------|
B|-3--|----|-3--3--|-2--|---3----3--2---|---3---3-|---3--------3-|-----2-|
G|-2--|----|-0--2--|-2--|-4-----------2-|-2-------|-0------------|---2---|
D|-0--|----|-0-----|----|---------------|---------|--------------|-------|
A|----|----|-x--2--|-0--|---------------|---------|--------------|-0-----|
E|----|----|-3-----|----|---------------|---------|--------------|-------|

[Chorus]
   D       A        Bm      A        G       D/F#    A      Bm     A     G
e|-------|--------|----------------|-------|-------|------|------------|--------|
B|-----3-|----2---|----3-------2---|-----0-|-------|----2-|----3-----2-|-----0--|
G|---2---|--2---2-|--4---4---2---2-|---0---|-----2-|--2---|--4-----2---|---0----|
D|-0-----|--------|----------------|-------|---0---|------|------------|--------|
A|-------|-0------|-2-------0------|-------|-------|-0----|-2-----0----|--------|
E|-------|--------|----------------|-3-----|-2-----|------|------------|-3------|
    Bm    A       G
e|-------------|-------|
B|-----3-----2-|-----0-|
G|---4-----2---|---0---|
D|-------------|-------|
A|-2-----0-----|-------|
E|-------------|-3-----|

[Instrumental]
    G                    A                 Bm7                   A
e|---------------------|-----------------|---------------------|-----------------|
B|-10-10-10-10-8-8-8-8-|-7-7-7-7-5-5-5-5/|-10-10-10-10-8-8-8-8-|-7-7-7-7-2-2-3-3-|
G|---------------------|-----------------|---------------------|-----------------|
D|---------------------|-----------------|---------------------|-----------------|
A|---------------------|-----------------|---------------------|-----------------|
E|---------------------|-----------------|---------------------|-----------------|
   G                     A                 Bm7                   F#m
e|---------------------|-----------------|---------------------|-----------------|
B|-10-10-10-10-8-8-8-8-|-7-7-7-7-5-5-5-5/|-10-10-10-10-8-8-8-8-|-7-7-7-7-2-2-3-3-|
G|---------------------|-----------------|---------------------|-----------------|
D|---------------------|-----------------|---------------------|-----------------|
A|---------------------|-----------------|---------------------|-----------------|
E|---------------------|-----------------|---------------------|-----------------|

[Bridge]
   G                     A                 Bm7                   F#m
e|---------------------|-----------------|---------------------|-----------------|
B|-10-10-10-10-8-8-8-8-|-7-7-7-7-5-5-5-5/|-10-10-10-10-8-8-8-8-|-7-7-7-7-2-2-3-3-|
G|---------------------|-----------------|---------------------|-----------------|
D|---------------------|-----------------|---------------------|-----------------|
A|---------------------|-----------------|---------------------|-----------------|
E|---------------------|-----------------|---------------------|-----------------|
   G                     A                 Bm7                   A
e|---------------------|-----------------|---------------------|-----------------|
B|-10-10-10-10-8-8-8-8-|-7-7-7-7-5-5-5-5/|-10-10-10-10-8-8-8-8-|-7-7-7-7-2-2-3-3-|
G|---------------------|-----------------|---------------------|-----------------|
D|---------------------|-----------------|---------------------|-----------------|
A|---------------------|-----------------|---------------------|-----------------|
E|---------------------|-----------------|---------------------|-----------------|
   G                                         A
e|-----------------------------------------|---------------------------------|
B|-10-10-10-10-10-10-10-10-8-8-8-8-8-8-8-8-|-7-7-7-7-7-7-7-7-5-5-5-5-5-5-5-5-|
G|-7--7--7--7--7--7--7--7--7-7-7-7-7-7-7-7-|-7-7-7-7-7-7-7-7-7-7-7-7-7-7-7-7-|
D|-----------------------------------------|---------------------------------|
A|-----------------------------------------|---------------------------------|
E|-----------------------------------------|---------------------------------|
   Bm7                                       F#m7
e|-----------------------------------------|---------------------------------|
B|-10-10-10-10-10-10-10-10-8-8-8-8-8-8-8-8-|-7-7-7-7-7-7-7-7-3-3-3-3-2-2-2-2-|
G|-7--7--7--7--7--7--7--7--7-7-7-7-7-7-7-7-|-7-7-7-7-7-7-7-7-2-2-2-2-2-2-2-2-|
D|-----------------------------------------|---------------------------------|
A|-----------------------------------------|---------------------------------|
E|-----------------------------------------|---------------------------------|
   G                                         A
e|-----------------------------------------|---------------------------------|
B|-10-10-10-10-10-10-10-10-8-8-8-8-8-8-8-8-|-7-7-7-7-7-7-7-7-5-5-5-5-5-5-5-5-|
G|-7--7--7--7--7--7--7--7--7-7-7-7-7-7-7-7-|-7-7-7-7-7-7-7-7-7-7-7-7-7-7-7-7-|
D|-----------------------------------------|---------------------------------|
A|-----------------------------------------|---------------------------------|
E|-----------------------------------------|---------------------------------|
   Bm7                                       A
e|-----------------------------------------|---------------------------------|
B|-10-10-10-10-10-10-10-10-8-8-8-8-8-8-8-8-|-7-7-7-7-7-7-7-7-3-3-3-3-2-2-2-2-|
G|-7--7--7--7--7--7--7--7--7-7-7-7-7-7-7-7-|-7-7-7-7-7-7-7-7-2-2-2-2-2-2-2-2-|
D|-----------------------------------------|---------------------------------|
A|-----------------------------------------|---------------------------------|
E|-----------------------------------------|---------------------------------|

[Chorus] tremolo pick throughout:
   D    A    Bm A    G    D/F#  A    Bm A  G
e|----|----|-------|----|-----|----|------|----|
B|----|----|-------|----|-----|----|------|----|
G|-7--|-6--|-7--6--|-4--|-7---|-6--|-7--6-|-4--|
D|----|----|-------|----|-----|----|------|----|
A|-5--|-4--|-5--4--|-2--|-5---|-4--|-5--4-|-2--|
E|----|----|-------|----|-----|----|------|----|

[Bridge] tremolo pick throughout
    G    A     Bm7   F#m7  G     A     Bm7   A
e|-----|-----|-----|-----|-----|-----|-----|-----|
B|-----|-----|-----|-----|-----|-----|-----|-----|
G|-12--|-14--|-16--|-11--|-12--|-14--|-16--|-18--|
D|-----|-----|-----|-----|-----|-----|-----|-----|
A|-10--|-12--|-14--|-9---|-10--|-12--|-14--|-16--|
E|-----|-----|-----|-----|-----|-----|-----|-----|

[Final Chorus] tremolo pick throughout:
   D    A    Bm   A    G    D/F# A    Bm m A    G(let ring to finish)
e|----|----|----|----|----|----|----|----|----|-3--|
B|----|----|----|----|----|----|----|----|----|-3--|
G|-7--|-6--|-7--|-6--|-4--|-7--|-6--|-7--|-6--|-0--|
D|----|----|----|----|----|----|----|----|----|-0--|
A|-5--|-4--|-5--|-4--|-2--|-5--|-4--|-5--|-4--|-x--|
E|----|----|----|----|----|----|----|----|----|-3--|


************************************

Guitar 2

[Verse 1] No guitar

[Chorus] No guitar

[Verse]
   D         G Bm A    Bm A/C# D     G  Bm     A
e|----|----|----|----|-7--5-|--10--|---------|-----|
B|----|----|----|----|-7--5-|--10--|-10--10--|-10--|
G|----|----|----|----|-7--6-|--11--|-12--11--|-9---|
D|----|----|----|----|-9--7-|--12--|-12--12--|-11--|
A|----|----|----|----|------|------|---------|-----|
E|----|----|----|----|------|------|---------|-----|

[Chorus]
   D       A     Bm A    G    D/F#  A     Bm A   G
e|-10-10-|-9---|-------|----|-10--|-9---|-------|----|
B|-7--10-|-10--|-7--5--|-3--|-7---|-10--|-7--5--|-3--|
G|-7--7--|-9---|-7--6--|-4--|-7---|-9---|-7--6--|-4--|
D|-7--7--|-----|-9--7--|-5--|-7---|-----|-9--7--|-5--|
A|-------|-----|-------|----|-----|-----|-------|----|
E|-------|-----|-------|----|-----|-----|-------|----|

[Instrumental]
   G    A    Bm7  A    G    A    Bm7  F#m7 G    A    Bm7  A 
e|----|----|----|----|----|----|----|----|----|----|----|----|
B|----|----|----|----|----|----|----|----|----|----|----|----|
G|-4--|-6--|-7--|-6--|-4--|-6--|-7--|-2--|-4--|-6--|-7--|-6--|
D|----|----|----|----|----|----|----|----|----|----|----|----|
A|----|----|----|----|----|----|----|----|----|----|----|----|
E|-3--|-5--|-7--|-5--|-3--|-5--|-7--|-2--|-3--|-5--|-7--|-5--|

[Bridge]          {..........strum these notes............}
   G    A    Bm7  F#m7 G    A    Bm7  A    G    A    Bm7  F#m7 G    A    Bm   A
e|----|----|----|----|----|----|----|----|----|----|----|----|----|----|----|----|
B|----|----|----|----|----|----|----|----|----|----|----|----|----|----|----|----|
G|-4--|-6--|-7--|-2--|----|----|----|----|----|----|----|----|----|----|----|----|
D|----|----|----|----|----|-2--|-4--|-2--|-0--|-2--|-4--|----|----|-2--|-4--|-2--|
A|----|----|----|----|----|-0--|-2--|-0--|-x--|-0--|-2--|-0--|----|-0--|-2--|-0--|
E|-3--|-5--|-7--|-2--|-3--|----|----|----|-3--|----|----|-2--|-3--|----|----|----|   

[Chorus]
   D    A    Bm A    G    D/F# A    Bm A    G
e|----|----|-------|----|----|----|-------|----|
B|-3--|-2--|-3--2--|-3--|-3--|-2--|-3--2--|-3--|
G|-2--|-2--|-4--2--|-0--|-2--|-2--|-4--2--|-0--|
D|-0--|-2--|-4--2--|-0--|-0--|-2--|-4--2--|-0--|
A|----|-0--|-2--0--|-x--|-x--|-0--|-2--0--|-x--|
E|----|----|-------|-3--|-2-------|-------|-3--|

[Bridge]  strum throughout
    G   A    Bm7 ?F#m7 G    A    Bm7  A
e|----|----|----|----|----|----|----|----|
B|----|----|----|----|----|----|----|----|
G|-4--|-6--|-7--|-2--|-4--|-6--|-7--|-6--|
D|-0--|-0--|-0--|-0--|-0--|-0--|-0--|-7--|
A|-x--|-x--|-x--|-x--|-x--|-x--|-x--|-7--|
E|-3--|-5--|-7--|-2--|-3--|-5--|-7--|-5--|

[Final Chorus]  strum throughout
   D    A    Bm A    G    D/F# A    Bm A    G    Bm A    G    Bm A  G
e|----|----|-------|----|----|----|-------|----|-------|----|-------|-3--|
B|-3--|-2--|-3--2--|-3--|-3--|-2--|-3--2--|-3--|-3--2--|----|-3--2--|-3--|
G|-2--|-2--|-4--2--|-0--|-2--|-2--|-4--2--|-0--|-4--2--|-0--|-4--2--|-0--|
D|-0--|-2--|-4--2--|-0--|-0--|-2--|-4--2--|-0--|-4--2--|-0--|-4--2--|-0--|
A|----|-0--|-2--0--|-x--|-x--|-0--|-2--0--|-x--|-2--0--|-x--|-2--0--|-x--|
E|----|----|-------|-3--|-2--|----|-------|-3--|-------|-3--|-------|-3--|


************************************

[Verse 1]
D
You were the Word at the beginning
          G      Bm        A
One With God the Lord Most High
Bm                A/C#  D
Your hidden glory in creation
       G        Bm      A
Now revealed in You Our Christ

[Chorus]
                         D                            A
What a beautiful Name it is, what a beautiful Name it is
            Bm    A         G
The Name of Jesus Christ my King
                         D/F#                    A
What a beautiful Name it is, nothing compares to this
                         Bm      A       G
What a beautiful Name it is, the Name of Jesus

[Verse 2]
D
You didn't want heaven without us
         G           Bm     A
So Jesus You brought heaven down
Bm                     A/C#     D
My sin was great, Your love was greater
           G    Bm     A
What could separate us now

[Chorus]
                         D                            A
What a wonderful Name it is, what a wonderful Name it is
            Bm    A         G
The Name of Jesus Christ my King
                         D/F#                    A
What a wonderful Name it is, nothing compares to this
                         Bm      A       G
What a wonderful Name it is, the Name of Jesus
                         Bm      A       G
What a wonderful Name it is, the Name of Jesus

[Instrumental]
G A Bm7 A
G A Bm7 F#m7
G A Bm7 A

[Bridge]
                     G                         A
Death could not hold You, the veil tore before You
                 Bm7              F#m7
You silenced the boast of sin and grave
                G                           A
The heavens are roaring the praise of Your glory
            Bm7            A
For You are raised to life again

            G                  A
You have no rival, You have no equal
           Bm7          F#m7
Now and forever God you reign
             G                      A
Yours is the Kingdom, Yours is the glory
             Bm7            A
Yours is the Name above all names

[Chorus]
                        D                           A
What a powerful Name it is, What a powerful Name it is
            Bm    A         G
The Name of Jesus Christ my King
                        D/F#                   A
What a powerful Name it is, Nothing can stand against
                        Bm      A       G
What a powerful Name it is, The Name of Jesus

[Bridge 2]
            G                  A
You have no rival, You have no equal
           Bm7          F#m7
Now and forever God you reign
             G                     A
Yours is the Kingdom, Yours is the glory
             Bm7               A
Yours is the Name above all names

[Final Chorus]
                        D                           A
What a powerful Name it is, What a powerful Name it is
            Bm    A         G
The Name of Jesus Christ my King
                        D/F#                   A
What a powerful Name it is, Nothing can stand against
                        Bm      A       G
What a powerful Name it is, The Name of Jesus
                        Bm      A       G
What a powerful Name it is, The Name of Jesus
                        Bm      A       G
What a powerful Name it is, The Name of Jesus


*********************************************


| x   Dead note
| g   Grace note
| (n) Ghost note
| h   Hammer-on
| p   Pull-off
| r   Release
| >   Accented note
| t   Tapping
| b   Bend
| br  Bend release
| pb  Pre-bend
| pbr Pre-bend release
| /   Slide up
| \   Slide down
| ~   Vibrato
| s   Slap
| P   Pop
| PM  Palm mute
| TR  Trill
| N   Tremolo

************************************
Suggest correction
Give kudos to tab author, rate the tab!
1 2 3 4 5
comments
print report bad tab
guest
You may want to rate the tab now too:
select rating
Wanna post a correction for this tab? Suggest correction