Oops, an error
Loading. Please wait.

Alive bass

version 2
version 2

Whole song

994 views 12 this week
no commentswrite comment
1 2 3 4 5
x 4
add to favorites
×
Save as Personal and add changes to this tab that will be seen only by you. Learn more ›
×
You can save this tab as Personal to edit and correct it or add notes. All changes will be seen only by you. Learn more »
launch autoscroll
font size
0
reset
guitar tuner
edit
Autoscroll
slow
fast
+/-
esc
set tempo
stop
Author
Difficulty
-------------------------------------------------------------------------------
                             ALIVE - Hillsong Young and Free
-------------------------------------------------------------------------------
Tabbed by: Pomskii
E-mail: donnovan.lee@live.com

Tuning: Standard

Have take into account for this particular song is that it is heavily out of time, so please don't be 
frustrated with this tab or me cause it took me quite a while to actually learn this song.

Also, to help indicate the timing in this song take the distance between each tab number as the correct timing. 
I know it's pretty rough but please let me know how I can improve it.

Intro
G|-----------------------------------------------------------------------------------------------------|
D|------------------------------------------------------------------------------2---4------------------|
A|----4---4-----------------------------------------4---4---2---2---2-2---2---2------------------------|
E|------------4---4---5---5---5-5---5-----0-5---5------------------------------------------------------|


Verse (All)
G|-----------------------------------------------------------------------------------------------------|
D|------------------------------------------------------------------------------2---4------------------|
A|----4---4-----------------------------------------4---4---2---2---2-2---2---2------------------------|
E|------------4---4---5---5---5-5---5-----0-5---5------------------------------------------------------|


Pre-Chorus is played the same as verse


Alternate way to play Pre-chorus
G|-----------------------------------------------------------------------------------------------------|
D|----11----11----6---------------7-----11------11----------7-6----------------------------------------|
A|------------------------------------------------------7-9--------------------------------------------|
E|-------9-----4-----4---5-5-5-5-----5-------9------7--------------------------------------------------|


Chorus (Repeated)
G|----------------------------------------------------------------------------------2-1----------------|
D|------------------------------------------------------------------------------2-4--------------------|
A|----4---4-----------------------------------------4---4---2---2---2-2---2---2------------------------|
E|------------4---4---5---5---5-5---5-----0-5---5------------------------------------------------------|

This is my very first tab and its not the easiest of songs, so I'm leaving it open so people can edit it 
as they see fit.

God Bless.

| /  slide up
| \  slide down
| h  hammer-on
| p  pull-off
| ~  vibrato
| +  harmonic
| x  Mute note
===============================================================================

            
            
Suggest correction
Creating personal tab
Creating personal tab
You can edit any tab online and save it as your Personal.

You can edit, replace or remove any tab part or add personal notes – all changes will be seen only by you.

Personal tabs can be accessed anytime from any device, even offline.
Learn more »
comments
print report bad tab
guest
You may want to rate the tab now too:
select rating
Wanna post a correction for this tab? Suggest correction