Oops, an error
Loading. Please wait.

Alive tab

version 3
version 3

Whole song

3,000 views 12 this week
no commentswrite comment
1 2 3 4 5
x 3
add to favorites
×
Save as Personal and add changes to this tab that will be seen only by you. Learn more ›
×
You can save this tab as Personal to edit and correct it or add notes. All changes will be seen only by you. Learn more »
launch autoscroll
font size
0
reset
how to read this tab
guitar tuner
edit
Autoscroll
slow
fast
+/-
esc
set tempo
stop
-----------------------------------------------------------------------------
                             Alive (Key of D) – Hillsong Young and Free
-----------------------------------------------------------------------------
Tabbed by: Kyle Wright
E-mail: nerdguitarist@me.com

This is the key both of my church’s bands play it in, but if you want to play it in the original key, you can 
either transpose it up a step or play it with a capo on the 2nd fret

Tuning: Standard
BPM: 132

Chords progression for the whole song. It changes with the synth/bass
   Bm  F#m  G   G   Bm  A
e|-------------------------|
B|-------------------------|
G|--7---2---4---4---7---6--|
D|--0---0---0---0---0---0--|
A|--X---X---X---X---X---X--|
E|--7---2---3---3---7---5--|

Verses: Either play the chords or if you have delay you can play this with dotted eighth notes  
e|-----------------------------------------------------------|
B|-----------------------------------------------------------|
G|-7-7-7-2-2-4-4-4-4-4-4-4-4-4-4-4-7-7-6-6-6-6-6-6-6-6-6-7-8-|
D|-----------------------------------------------------------|
A|-----------------------------------------------------------|
E|-----------------------------------------------------------|
With dotted eighth note delay (if you have it) it follows the synth part so listen to the song for the timing


Pre-choruses: Play this part over and over until the chorus listen to the song for the timing
e|-10-XX-10-XX-------------------------------------------------------------|
B|-X--XX-X--XX-------------------------------------------------------------|
G|-7--XX-7--XX-------------------------------------------------------------|
D|-------------------------------------------------------------------------|
A|-------------------------------------------------------------------------|
E|-------------------------------------------------------------------------|

Choruses: Your choice of either the chords or the verse part with delay
e|-----------------------------------------------------------|
B|-----------------------------------------------------------|
G|-7-7-7-2-2-4-4-4-4-4-4-4-4-4-4-4-7-7-6-6-6-6-6-6-6-6-6-7-8-|
D|-----------------------------------------------------------|
A|-----------------------------------------------------------|
E|-----------------------------------------------------------|

Interludes: Your choice of chords, the chorus part ---^ or this part. 
It can be played either like this                 or like this 
e|-------------------------------|-----------------------------------------|
B|-10-(x8)-7-(x8)-10-(x8)-5-(x8)-|-----------------------------------------|
G|-------------------------------|-14----11----14----9---------------------|
D|-------------------------------|-0—(x8)0-(x8)0-(x8)0-(x8)----------------|
A|-------------------------------|-----------------------------------------|
E|-------------------------------|-----------------------------------------|

That’s really all the parts so here is the order:

1)      Intro (verse parts)
2)      Verse
3)      Pre-chorus
4)      Chorus
5)      Interlude x2
6)      Verse
7)      Pre-Chorus
8)      Chorus
9)      Interlude x2
10)     Bridge (Drop Out)
11)     Pre-chorus
12)     Chorus x2
13)     Interlude x2 (If you're playing the live version it ends here)

            
            
Suggest correction
Creating personal tab
Creating personal tab
You can edit any tab online and save it as your Personal.

You can edit, replace or remove any tab part or add personal notes – all changes will be seen only by you.

Personal tabs can be accessed anytime from any device, even offline.
Learn more »
Give kudos to tab author, rate the tab!
1 2 3 4 5
comments
print report bad tab
guest
You may want to rate the tab now too:
select rating
Wanna post a correction for this tab? Suggest correction