Oops, an error
Loading. Please wait.

Energy Tab

28 views 1 this week
no commentswrite comment
1 2 3 4 5
2 more votes to show rating
add to favorites
launch autoscroll
font size
0
reset
how to read this tab
guitar tuner
Autoscroll
slow
fast
+/-
esc
set tempo
stop
Help us to improve Ultimate-Guitar.com Take our survey!
×
Author
Difficulty
intermediate
[Instrumental/Solo]
e|------------------------|------------------------|--------------------------|
B|------------------------|------------------------|--------------------------|
G|--6-3---3---------------|--6-3---3---------------|--6-3---3-----------------|
D|------6---6--------3-3-4|------6---6--------3-3-4|------6---6--------3-3-4--|
A|---------------4-4------|---------------4-4------|---------------4-4--------|
E|------------------------|------------------------|--------------------------|

e|------------------------|
B|------------------2-----|
G|--6-3---3-----6-3---6---|
D|------6---6-----------4-|
A|------------------------|
E|------------------------|

Suggest correction
Give kudos to tab author, rate the tab!
1 2 3 4 5
comments
print report bad tab
guest
You may want to rate the tab now too:
select rating
Wanna post a correction for this tab? Suggest correction