Oops, an error
Loading. Please wait.

Sinking Deep Live tab

version 4
version 4

Whole song

646 views 12 this week
no commentswrite comment
1 2 3 4 5
1 last vote to show rating
add to favorites
×
Save as Personal and add changes to this tab that will be seen only by you. Learn more ›
×
You can save this tab as Personal to edit and correct it or add notes. All changes will be seen only by you. Learn more »
launch autoscroll
font size
0
reset
how to read this tab
guitar tuner
edit
Autoscroll
slow
fast
+/-
esc
set tempo
stop
About this tab version
Fuller tab based on the live version. Was this info helpful? Yes No
I explain how the pattern works at the bottom, which may make it easier to play than purely 
memorising the tabs. 


[Intro]

   G                               C
e|---------------------------------------------------------------------------|
B|---0--0--0--0------0--0--0--0------3--3--3--3--0----3--3--3--3-1-0---------|
G|-----0--0--0---------0--0--0---------0--0--0--2-------0--0--0--------------|
D|--0-0--0--0-------0-0--0--0-------2-2--2--2--------2-2--2--2--2------------|
A|-------------2---------------2---3----------------3------------------------|
E|-3---------------3---------------------------------------------------------|


[Verse] (x2)

   G                               C
e|---------------------------------------------------------------------------|
B|---0--0--0--0------0--0--0--0------3--3--3--3--0----3--3--3--3-1-0---------|
G|-----0--0--0---------0--0--0---------0--0--0--2-------0--0--0--------------|
D|--0-0--0--0-------0-0--0--0-------2-2--2--2--------2-2--2--2--2------------|
A|-------------2---------------2---3----------------3------------------------|
E|-3---------------3---------------------------------------------------------|
  Standing here in Your presence...


[Chorus 1]

   Am    Em        G     D          Am    Em        D
e|---3--3--3--3------3--3--2--2-------3--3--3--3------2--2---2--2------------|
B|-----1-----0---------0-----3----------1-----0---------3------3-------------|
G|--0-0---0-0-------0-0---2-2--------0-0---0-0-------2-2----2-2--------------|
D|-----------------------0--------------------------0------0-----------------|
A|-0--------------------------------0----------------------------------------|
E|-------0---------3----------------------0----------------------------------|
  I'm wide awake...

   Am    Em        G     D*         C       - strum thrice -
e|---3--3--2--2--------------------------------------------------------------|
B|-----1-----0-------0--0--3--3-------1--------------------------------------|
G|--0-0---0-0----------0-----0-----------------------------------------------|
D|------------------0-0---4-4--------2---------------------------------------|
A|-0---------------------5----------3----------------------------------------|
E|-------0---------3---------------------------------------------------------|
  All fear removed...


[Chorus 2]

   Am      Em       G       D       Am      Em      D
e|----3---3---3---3----3---3---2---2---3---3---3---3---2---2---2---2---------|
B|---1-1-1---0-0-0----0-0-0---3-3-3---1-1-1---0-0-0---3-3-3---3-3-3----------|
G|--0---0---0---0----0---0---2---2---0---0---0---0---2---2---2---2-----------|
D|--------------------------0-----------------------0-------0----------------|
A|-0--------------------------------0----------------------------------------|
E|---------0--------3-----------------------0--------------------------------|
  I'm wide awake...

   Am      Em       G       D*         C      - strum thrice -
e|----3---3---2---2----------------------------------------------------------|
B|---1-1-1---0-0-0-----0---0---3---3---1-------------------------------------|
G|--0---0---0---0-----0-0-0---0-0-0------------------------------------------|
D|-------------------0---0---4---4-----2-------------------------------------|
A|-0------------------------5----------3-------------------------------------|
E|---------0--------3--------------------------------------------------------|
  All fear removed...


*Plucking pattern explained*
For Intro, Verse, and First Chorus, 
the basic right hand pattern is [thumb-index-4th] [index-middle-4th]x3, 
played on the chord, with one or two passing notes here and there. Generally the thumb
plays the bass note and the other fingers play the higher 3-4 strings.

For Second Chorus, 
the right hand pattern is [thumb-index-middle-4th-middle-index-middle-4th],
played on the chord.

Except for the D* chord, the other chords are pretty much the regular shapes.
D* is x54030 (which is the C shape moved up 2 frets)

            
            
Suggest correction
Creating personal tab
Creating personal tab
You can edit any tab online and save it as your Personal.

You can edit, replace or remove any tab part or add personal notes – all changes will be seen only by you.

Personal tabs can be accessed anytime from any device, even offline.
Learn more »
Give kudos to tab author, rate the tab!
1 2 3 4 5
comments
print report bad tab
guest
You may want to rate the tab now too:
select rating
Wanna post a correction for this tab? Suggest correction